» » »

Pink Floyd, Sheep Bass tabs (ver.3)

Artists:  A B C D E F G H I J K L M N O P Q R S T U V W X Y Z # 

Sheep Bass tabs (ver.3)

Pink Floyd Tabs
Rating:
0/5 (0 votes)
Sheep lessons Tabs too difficult? Try these video lessons and learn fast
                Sheep by Pink Floyd
Standard Tuning

G|-------------------------------------------------|
D|-------------------------------------------------|  x15
A|-5-5-5-5-5-5-5-5-5-5-5-5-5-5-5-5-5-5-5-5-5-5-5-5-|
E|-------------------------------------------------|

G|-------------------------------------------------|
D|-------------------------------------------------|
A|-5-5-5-5-5-5-5-5-5-5-5-5-5-5-5-5-5-5/8-8-8-8\----|
E|-------------------------------------------------|

G|-------------------------------------------------|
D|-------------------------------------------------|
A|-0-0-0-0-0-0-0-0-0-0-0-0-0-0-0-0-0-0-0-0-0-0-0-0-|
E|-------------------------------------------------|

G|-------------------------------------------------|
D|-------------------------------------------------|
A|-0-0-0-0-0-0-0-0-0-0-0-0-0-0-0-0-0-0-3-3-3-3-3-3-|
E|-------------------------------------------------|

G|-------------------------------------------------|
D|-------------------------------------------------|  x2
A|-2-2-2-2-2-2-2-2-2-2-2-2-2-2-2-2-2-2-2-2-2-2-2-2-|
E|-------------------------------------------------|

G|-------------------------------------------------|
D|-------------------------------------------------|
A|-0-0-0-0-0-0-0-0-0-0-0---0-0-0-0-0-0-0-0-0-0-0---|
E|-----------------------3-----------------------3-|

G|-------------------------------------------------|
D|------------------------------------/7-7-7-7-7-7-|
A|-0-0-0-0-0-0-0-0-0-0-0-0-0-0-0-0-0-0-0-0-0-0-0-0-|
E|-------------------------------------------------|

(1st Verse)
G|-----------------|-----------------|-----------------|-----------------|
D|-----------------|-----------------|-----------------|-----------------|
A|-7-7---x-7-7---x-|-7-7---x-7-7---x-|-7-7---x-7-7---x-|-7-7---x-7-7---x-|
E|-----------------|-----------------|-----------------|-----------------|

G|-----------------|-----------------|-----------------|-----------------|
D|-----------------|-----------------|-----------------|-----------------|
A|-0-0---x-0-0---x-|-0-0---x-0-0---x-|-0-0---x-0-0---x-|-0-0---x-0-0---x-|
E|-----------------|-----------------|-----------------|-----------------|

G|-----------------|-----------------|-----------------|-----------------|
D|-----------------|-----------------|-----------------|-----------------|
A|-7-7---x-7-7---5-|-7-7---x-7-7---5-|-7-7---x-7-7---5-|-7-7---x-7-7---x-|
E|-----------------|-----------------|-----------------|-----------------|

G|-----------------|-----------------|-----------------|-----------------|
D|-----------------|-----------------|-----------------|-----------------|
A|-7-7---x-7-7---x-|-7-7---x-7-7---x-|-7-7---x-7-7---x-|-7-7---x-7-7---x-|
E|-----------------|-----------------|-----------------|-----------------|

G|-----------------|-----------------|-----------------|-----------------|
D|-----------------|-----------------|-----------------|-----------------|
A|-0-0---x-0-0---x-|-0-0---x-0-0---x-|-0-0---x-0-0---x-|-0-0---x-0-0---x-|
E|-----------------|-----------------|-----------------|-----------------|

G|-----------------|-----------------|-----------------|-----------------|
D|-----------------|-----------------|-----------------|-----------------|
A|-7-7---x-7-7---5-|-7-7---x-7-7---5-|-7-7---x-7-7---5-|-7-7---x-7-7-7\--|
E|-----------------|-----------------|-----------------|-----------------|

G|-----------------|-----------------|-----------------|-----------------|
D|-----------------|-----------------|-----------------|-----------------|
A|-----------------|-----------------|-0-0---x-0-0---x-|0-0---x-0-0-x-x-x|
E|-2-2---x-2-2---x-|-2-2---x-2-2---x-|-----------------|-----------------|

G|-----------------|-----------------|-----------------|-----------------|
D|-----------------|-----------------|-----------------|-----------------|
A|-----------------|-----------------|-0-0---x-0-0---x-|-0-0---x-0-0-12\-|
E|-2-2---x-2-2---x-|-2-2---x-2-2---x-|-----------------|-----------------|

 |-----------------|-----------------|-----------------|-----------------|
 |-----------------|-----------------|-----------------|-----------------|
 |-7-7---x-7-7---5-|-7-7---x-7-7---5-|-7-7---x-7-7---5-|-7-7---x-7-7---x-|
 |-----------------|-----------------|-----------------|-----------------|


(2nd Verse)
G|-----------------|-----------------|-----------------|-----------------|
D|-----------------|-----------------|-----------------|-----------------|
A|-7-7---x-7-7---x-|-7-7---x-7-7---x-|-7-7---x-7-7---x-|-7-7---x-7-7---x-|
E|-----------------|-----------------|-----------------|-----------------|

G|-----------------|-----------------|-----------------|-----------------|
D|-----------------|-----------------|-----------------|-----------------|
A|-0-0---x-0-0---x-|-0-0---x-0-0---x-|-0-0---x-0-0---x-|-0-0---x-0-0---x-|
E|-----------------|-----------------|-----------------|-----------------|

G|-----------------|-----------------|-----------------|-----------------|
D|-----------------|-----------------|-----------------|-----------------|
A|-7-7---x-7-7---5-|-7-7---x-7-7---5-|-7-7---x-7-7---5-|-7-7---x-7-7---x-|
E|-----------------|-----------------|-----------------|-----------------|

G|-----------------|-----------------|-----------------|-----------------|
D|-----------------|-----------------|-----------------|-----------------|
A|-7-7---x-7-7---x-|-7-7---x-7-7---x-|-7-7---x-7-7---x-|-7-7---x-7-7---x-|
E|-----------------|-----------------|-----------------|-----------------|

G|-----------------|-----------------|-----------------|-----------------|
D|-----------------|-----------------|-----------------|-----------------|
A|-0-0---x-0-0---x-|-0-0---x-0-0---x-|-0-0---x-0-0---x-|-0-0---x-0-0---x-|
E|-----------------|-----------------|-----------------|-----------------|

G|-----------------|-----------------|-----------------|-----------------|
D|-----------------|-----------------|-----------------|-----------------|
A|-7-7---x-7-7---5-|-7-7---x-7-7---5-|-7-7---x-7-7---5-|-7-7---x-7-7-7\--|
E|-----------------|-----------------|-----------------|-----------------|

G|-----------------|-----------------|-----------------|-----------------|
D|-----------------|-----------------|-----------------|-----------------|
A|-----------------|-----------------|-0-0---x-0-0---x-|0-0---x-0-0-x-x-x|
E|-2-2---x-2-2---x-|-2-2---x-2-2---x-|-----------------|-----------------|

G|-----------------|-----------------|-----------------|-----------------|
D|-----------------|-----------------|-----------------|-----------------|
A|-----------------|-----------------|-0-0---x-0-0---x-|-0-0---x-0-0-12\-|
E|-2-2---x-2-2---x-|-2-2---x-2-2---x-|-----------------|-----------------|

(Bridge)
G|---9-9---9-9---9-9---9-9-|---9-9---9-9---9-9---9-9-|
D|-------------------------|-------------------------|  x11
A|-7-----7-----7-----7-----|-7-----7-----7-----7-----| 
E|-------------------------|-------------------------|
                                       
G|---9-9---9-9---9-9---9-9-|---9-9---9-9---9-9---9\--|
D|-------------------------|-------------------------|
A|-7-----7-----7-----7-----|-7-----7-----7-----7-----|
E|-------------------------|-------------------------|

G|-----------------|-----------------|-----------------|-------------------|
D|-----------------|-----------------|-----------------|-------------------|
A|-----------------|-----------------|-0-0---x-0-0---x-|-0-0---x-0-0-x-x-x-|
E|-2-2---x-2-2---x-|-2-2---x-2-2---x-|-----------------|-------------------|

G|-----------------|-----------------|-----------------|-------------------|
D|-----------------|-----------------|-----------------|------------/7-7-7-|
A|-----------------|-----------------|-0-0---x-0-0---x-|-0-0---x-0-0-0-0-0-|
E|-2-2---x-2-2---x-|-2-2---x-2-2---x-|-----------------|-------------------|
                            
(Interlude)
G|-------------------------------------------------|
D|-------------------------------------------------|  x19
A|-5-5-5-5-5-5-5-5-5-5-5-5-5-5-5-5-5-5-5-5-5-5-5-5-| 
E|-------------------------------------------------|

G|-------------------------------------------------|
D|-------------------------------------------------|
A|-5-5-5-5-5-5-5-5-5-5-5-5-5-5-5-5-5-5/8-8-8-8\----|
E|-------------------------------------------------|

G|-------------------------------------------------|
D|-------------------------------------------------|
A|-0-0-0-0-0-0-0-0-0-0-0-0-0-0-0-0-0-0-0-0-0-0-0-0-|
E|-------------------------------------------------|

G|-------------------------------------------------|
D|-------------------------------------------------|
A|-0-0-0-0-0-0-0-0-0-0-0-0-0-0-0-0-0-0-3-3-3-3-3-3-|
E|-------------------------------------------------|

G|-------------------------------------------------|
D|-------------------------------------------------|  x2
A|-2-2-2-2-2-2-2-2-2-2-2-2-2-2-2-2-2-2-2-2-2-2-2-2-|
E|-------------------------------------------------|

G|-------------------------------------------------|
D|-------------------------------------------------|
A|-0-0-0-0-0-0-0-0-0-0-0---0-0-0-0-0-0-0-0-0-0-0---|
E|-----------------------3-----------------------3-|
               
G|-------------------------------------------------|
D|------------------------------------/7-7-7-7-7-7-|
A|-0-0-0-0-0-0-0-0-0-0-0-0-0-0-0-0-0-0-0-0-0-0-0-0-|
E|-------------------------------------------------|


(3rd Verse)
G|-----------------|-----------------|-----------------|-----------------|
D|-----------------|-----------------|-----------------|-----------------|
A|-7-7---x-7-7---x-|-7-7---x-7-7---x-|-7-7---x-7-7---x-|-7-7---x-7-7---x-|
E|-----------------|-----------------|-----------------|-----------------|

G|-----------------|-----------------|-----------------|-----------------|
D|-----------------|-----------------|-----------------|-----------------|
A|-0-0---x-0-0---x-|-0-0---x-0-0---x-|-0-0---x-0-0---x-|-0-0---x-0-0---x-|
E|-----------------|-----------------|-----------------|-----------------|

G|-----------------|-----------------|-----------------|-----------------|
D|-----------------|-----------------|-----------------|-----------------|
A|-7-7---x-7-7---5-|-7-7---x-7-7---5-|-7-7---x-7-7---5-|-7-7---x-7-7---x-|
E|-----------------|-----------------|-----------------|-----------------|

G|-----------------|-----------------|-----------------|-----------------|
D|-----------------|-----------------|-----------------|-----------------|
A|-7-7---x-7-7---x-|-7-7---x-7-7---x-|-7-7---x-7-7---x-|-7-7---x-7-7---x-|
E|-----------------|-----------------|-----------------|-----------------|

G|-----------------|-----------------|-----------------|-----------------|
D|-----------------|-----------------|-----------------|-----------------|
A|-0-0---x-0-0---x-|-0-0---x-0-0---x-|-0-0---x-0-0---x-|-0-0---x-0-0---x-|
E|-----------------|-----------------|-----------------|-----------------|

G|-----------------|-----------------|-----------------|-----------------|
D|-----------------|-----------------|-----------------|-----------------|
A|-7-7---x-7-7---5-|-7-7---x-7-7---5-|-7-7---x-7-7---5-|-7-7---x-7-7-7\--|
E|-----------------|-----------------|-----------------|-----------------|

G|-----------------|-----------------|-----------------|-----------------|
D|-----------------|-----------------|-----------------|-----------------|
A|-----------------|-----------------|-0-0---x-0-0---x-|0-0---x-0-0-x-x-x|
E|-2-2---x-2-2---x-|-2-2---x-2-2---x-|-----------------|-----------------|

G|-----------------|-----------------|-----------------|-----------------|
D|-----------------|-----------------|-----------------|-----------------|
A|-----------------|-----------------|-0-0---x-0-0---x-|-0-0---x-0-0-12\-|
E|-2-2---x-2-2---x-|-2-2---x-2-2---x-|-----------------|-----------------|

G|----9-9----9--|----9-9----9--|----9-9----9--|----9-9----9--|
D|--------------|--------------|--------------|--------------|  x3
A|-7------7-----|-7------7-----|-7------7-----|-7------7-----|
E|--------------|--------------|-0------------|--------------|

G|----9-9----9--|----9-9----9--|--------------|--------------|
D|--------------|--------------|----7-7----7--|----7-7----7--|
A|-7------7-----|-7------7-----|-0------0-----|-0------0-----|
E|--------------|-0------------|--------------|--------------|
 
G|---------------------|---------------------|
D|-----7---------7-----|-----7---------7-----|
A|-0-7---7-0-0-7---7-0-|-0-7---7-0-0-7---7-0-|
E|---------------------|---------------------|

G|----9-9----9--|----9-9----9--|----9-9----9--|----9-9----9--|
D|--------------|--------------|--------------|--------------|  x3
A|-7------7-----|-7------7-----|-7------7-----|-7------7-----|
E|--------------|--------------|-0------------|--------------|

G|----9-9----9--|----9-9----9--|--------------|--------------|
D|--------------|--------------|----7-7----7--|----7-7----7--|
A|-7------7-----|-7------7-----|-0------0-----|-0------0-----|
E|--------------|-0------------|--------------|--------------|
 
G|---------------------|---------------------|
D|-----7---------7-----|-----7---------7-----|
A|-0-7---7-0-0-7---7-0-|-0-7---7-0-0-7---7-0-|
E|---------------------|---------------------|

G|----9-9----9--|----9-9----9--|----9-9----9--|----9-9----9--|
D|--------------|--------------|--------------|--------------|  x3
A|-7------7-----|-7------7-----|-7------7-----|-7------7-----|
E|--------------|--------------|-0------------|--------------|

G|----9-9----9--|----9-9----9--|--------------|--------------|
D|--------------|--------------|----7-7----7--|----7-7----7--|
A|-7------7-----|-7------7-----|-0------0-----|-0------0-----|
E|--------------|-0------------|--------------|--------------|
 
G|---------------------|---------------------|
D|-----7---------7-----|-----7---------7-----|
A|-0-7---7-0-0-7---7-0-|-0-7---7-0-0-7---7-0-|
E|---------------------|---------------------|

G|----9-9----9--|----9-9----9--|----9-9----9--|----9-9----9--|
D|--------------|--------------|--------------|--------------|  x3
A|-7------7-----|-7------7-----|-7------7-----|-7------7-----|
E|--------------|--------------|-0------------|--------------|

G|----9-9----9--|----9-9----9--|--------------|--------------|
D|--------------|--------------|----7-7----7--|----7-7----7--|
A|-7------7-----|-7------7-----|-0------0-----|-0------0-----|
E|--------------|-0------------|--------------|--------------|
 
G|---------------------|---------------------|
D|-----7---------7-----|-----7---------7-----|
A|-0-7---7-0-0-7---7-0-|-0-7---7-0-0-7---7-0-| Fades out
E|---------------------|---------------------|

Thanks, please rate it after you learn it
_TheBassist01_
            

comments powered by Disqus
↑ Back to top | Pink Floyd Bass for Sheep. Lyrics for acoustic guitar and electric guitar. Tablatures and chords are parodies/interpretations of the original songs. You may use it for private study, scholarship, research or language learning purposes only