>
 >
Sheep 1

Sheep 1 Bass Tabs

Pink Floyd - Sheep 1 chords, tabs, tablatures, lyrics

Guitar lessons | Add/correct | Request | Top 50 tabs Artists:  A B C D E F G H I J K L M N O P Q R S T U V W X Y Z 0-9

Sheep 1 Bass Tabs – Pink Floyd

CD, Sheet music, Poster

Do you like Sheep 1? Share with your friends now
Bass TabsBass Tabs v2Bass Tabs v3ChordsTabsTabs v2Ukulele
Intro (Rest for Four Measures then Fade-In)
G|-------------------------------------------------|
D|-------------------------------------------------|
A|-5-5-5-5-5-5-5-5-5-5-5-5-5-5-5-5-5-5-5-5-5-5-5-5-| x15
E|-------------------------------------------------|

G|-------------------------------------------------|
D|-------------------------------------------------|
A|-5-5-5-5-5-5-5-5-5-5-5-5-5-5-5-5-5-5/8-8-8-8\----|
E|-------------------------------------------------|

G|-------------------------------------------------|
D|-------------------------------------------------|
A|-0-0-0-0-0-0-0-0-0-0-0-0-0-0-0-0-0-0-0-0-0-0-0-0-|
E|-------------------------------------------------|

G|-------------------------------------------------|
D|-------------------------------------------------|
A|-0-0-0-0-0-0-0-0-0-0-0-0-0-0-0-0-0-0-3-3-3-3-3-3-|
E|-------------------------------------------------|

G|-------------------------------------------------|
D|-------------------------------------------------|
A|-2-2-2-2-2-2-2-2-2-2-2-2-2-2-2-2-2-2-2-2-2-2-2-2-| x2
E|-------------------------------------------------|

G|-------------------------------------------------|
D|-------------------------------------------------|
A|-0-0-0-0-0-0-0-0-0-0-0---0-0-0-0-0-0-0-0-0-0-0---|
E|-----------------------3-----------------------3-|

G|-------------------------------------------------|
D|------------------------------------/7-7-7-7-7-7-|
A|-0-0-0-0-0-0-0-0-0-0-0-0-0-0-0-0-0-0-0-0-0-0-0-0-|
E|-------------------------------------------------|


First Verse
G|-----------------|-----------------|-----------------|-----------------|
D|-----------------|-----------------|-----------------|-----------------|
A|-7-7---x-7-7---x-|-7-7---x-7-7---x-|-7-7---x-7-7---x-|-7-7---x-7-7---x-|
E|-----------------|-----------------|-----------------|-----------------|

G|-----------------|-----------------|-----------------|-----------------|
D|-----------------|-----------------|-----------------|-----------------|
A|-0-0---x-0-0---x-|-0-0---x-0-0---x-|-0-0---x-0-0---x-|-0-0---x-0-0---x-|
E|-----------------|-----------------|-----------------|-----------------|

G|-----------------|-----------------|-----------------|-----------------|
D|-----------------|-----------------|-----------------|-----------------|
A|-7-7---x-7-7---5-|-7-7---x-7-7---5-|-7-7---x-7-7---5-|-7-7---x-7-7---x-|
E|-----------------|-----------------|-----------------|-----------------|

G|-----------------|-----------------|-----------------|-----------------|
D|-----------------|-----------------|-----------------|-----------------|
A|-7-7---x-7-7---x-|-7-7---x-7-7---x-|-7-7---x-7-7---x-|-7-7---x-7-7---x-|
E|-----------------|-----------------|-----------------|-----------------|

G|-----------------|-----------------|-----------------|-----------------|
D|-----------------|-----------------|-----------------|-----------------|
A|-0-0---x-0-0---x-|-0-0---x-0-0---x-|-0-0---x-0-0---x-|-0-0---x-0-0---x-|
E|-----------------|-----------------|-----------------|-----------------|

G|-----------------|-----------------|-----------------|-----------------|
D|-----------------|-----------------|-----------------|-----------------|
A|-7-7---x-7-7---5-|-7-7---x-7-7---5-|-7-7---x-7-7---5-|-7-7---x-7-7-7\--|
E|-----------------|-----------------|-----------------|-----------------|

G|-----------------|-----------------|-----------------|-------------------|
D|-----------------|-----------------|-----------------|-------------------|
A|-----------------|-----------------|-0-0---x-0-0---x-|-0-0---x-0-0-x-x-x-|
E|-2-2---x-2-2---x-|-2-2---x-2-2---x-|-----------------|-------------------|

G|-----------------|-----------------|-----------------|-----------------|
D|-----------------|-----------------|-----------------|-----------------|
A|-----------------|-----------------|-0-0---x-0-0---x-|-0-0---x-0-0-12\-|
E|-2-2---x-2-2---x-|-2-2---x-2-2---x-|-----------------|-----------------|

|-----------------|-----------------|-----------------|-----------------|
|-----------------|-----------------|-----------------|-----------------|
|-7-7---x-7-7---5-|-7-7---x-7-7---5-|-7-7---x-7-7---5-|-7-7---x-7-7---x-|
|-----------------|-----------------|-----------------|-----------------|


Second Verse
G|-----------------|-----------------|-----------------|-----------------|
D|-----------------|-----------------|-----------------|-----------------|
A|-7-7---x-7-7---x-|-7-7---x-7-7---x-|-7-7---x-7-7---x-|-7-7---x-7-7---x-|
E|-----------------|-----------------|-----------------|-----------------|

G|-----------------|-----------------|-----------------|-----------------|
D|-----------------|-----------------|-----------------|-----------------|
A|-0-0---x-0-0---x-|-0-0---x-0-0---x-|-0-0---x-0-0---x-|-0-0---x-0-0---x-|
E|-----------------|-----------------|-----------------|-----------------|

G|-----------------|-----------------|-----------------|-----------------|
D|-----------------|-----------------|-----------------|-----------------|
A|-7-7---x-7-7---5-|-7-7---x-7-7---5-|-7-7---x-7-7---5-|-7-7---x-7-7---x-|
E|-----------------|-----------------|-----------------|-----------------|

G|-----------------|-----------------|-----------------|-----------------|
D|-----------------|-----------------|-----------------|-----------------|
A|-7-7---x-7-7---x-|-7-7---x-7-7---x-|-7-7---x-7-7---x-|-7-7---x-7-7---x-|
E|-----------------|-----------------|-----------------|-----------------|

G|-----------------|-----------------|-----------------|-----------------|
D|-----------------|-----------------|-----------------|-----------------|
A|-0-0---x-0-0---x-|-0-0---x-0-0---x-|-0-0---x-0-0---x-|-0-0---x-0-0---x-|
E|-----------------|-----------------|-----------------|-----------------|

G|-----------------|-----------------|-----------------|-----------------|
D|-----------------|-----------------|-----------------|-----------------|
A|-7-7---x-7-7---5-|-7-7---x-7-7---5-|-7-7---x-7-7---5-|-7-7---x-7-7-7\--|
E|-----------------|-----------------|-----------------|-----------------|

G|-----------------|-----------------|-----------------|-------------------|
D|-----------------|-----------------|-----------------|-------------------|
A|-----------------|-----------------|-0-0---x-0-0---x-|-0-0---x-0-0-x-x-x-|
E|-2-2---x-2-2---x-|-2-2---x-2-2---x-|-----------------|-------------------|

G|-----------------|-----------------|-----------------|-----------------|
D|-----------------|-----------------|-----------------|-----------------|
A|-----------------|-----------------|-0-0---x-0-0---x-|-0-0---x-0-0-12\-|
E|-2-2---x-2-2---x-|-2-2---x-2-2---x-|-----------------|-----------------|


Bridge
G|---9-9---9-9---9-9---9-9-|---9-9---9-9---9-9---9-9-|
D|-------------------------|-------------------------|
A|-7-----7-----7-----7-----|-7-----7-----7-----7-----| x11
E|-------------------------|-------------------------|
                                       
G|---9-9---9-9---9-9---9-9-|---9-9---9-9---9-9---9\--|
D|-------------------------|-------------------------|
A|-7-----7-----7-----7-----|-7-----7-----7-----7-----|
E|-------------------------|-------------------------|

G|-----------------|-----------------|-----------------|-------------------|
D|-----------------|-----------------|-----------------|-------------------|
A|-----------------|-----------------|-0-0---x-0-0---x-|-0-0---x-0-0-x-x-x-|
E|-2-2---x-2-2---x-|-2-2---x-2-2---x-|-----------------|-------------------|

G|-----------------|-----------------|-----------------|-------------------|
D|-----------------|-----------------|-----------------|------------/7-7-7-|
A|-----------------|-----------------|-0-0---x-0-0---x-|-0-0---x-0-0-0-0-0-|
E|-2-2---x-2-2---x-|-2-2---x-2-2---x-|-----------------|-------------------|
                            

Interlude
G|-------------------------------------------------|
D|-------------------------------------------------|
A|-5-5-5-5-5-5-5-5-5-5-5-5-5-5-5-5-5-5-5-5-5-5-5-5-| x19
E|-------------------------------------------------|

G|-------------------------------------------------|
D|-------------------------------------------------|
A|-5-5-5-5-5-5-5-5-5-5-5-5-5-5-5-5-5-5/8-8-8-8\----|
E|-------------------------------------------------|

G|-------------------------------------------------|
D|-------------------------------------------------|
A|-0-0-0-0-0-0-0-0-0-0-0-0-0-0-0-0-0-0-0-0-0-0-0-0-|
E|-------------------------------------------------|

G|-------------------------------------------------|
D|-------------------------------------------------|
A|-0-0-0-0-0-0-0-0-0-0-0-0-0-0-0-0-0-0-3-3-3-3-3-3-|
E|-------------------------------------------------|

G|-------------------------------------------------|
D|-------------------------------------------------|
A|-2-2-2-2-2-2-2-2-2-2-2-2-2-2-2-2-2-2-2-2-2-2-2-2-| x2
E|-------------------------------------------------|

G|-------------------------------------------------|
D|-------------------------------------------------|
A|-0-0-0-0-0-0-0-0-0-0-0---0-0-0-0-0-0-0-0-0-0-0---|
E|-----------------------3-----------------------3-|
               
G|-------------------------------------------------|
D|------------------------------------/7-7-7-7-7-7-|
A|-0-0-0-0-0-0-0-0-0-0-0-0-0-0-0-0-0-0-0-0-0-0-0-0-|
E|-------------------------------------------------|


Third Verse
G|-----------------|-----------------|-----------------|-----------------|
D|-----------------|-----------------|-----------------|-----------------|
A|-7-7---x-7-7---x-|-7-7---x-7-7---x-|-7-7---x-7-7---x-|-7-7---x-7-7---x-|
E|-----------------|-----------------|-----------------|-----------------|

G|-----------------|-----------------|-----------------|-----------------|
D|-----------------|-----------------|-----------------|-----------------|
A|-0-0---x-0-0---x-|-0-0---x-0-0---x-|-0-0---x-0-0---x-|-0-0---x-0-0---x-|
E|-----------------|-----------------|-----------------|-----------------|

G|-----------------|-----------------|-----------------|-----------------|
D|-----------------|-----------------|-----------------|-----------------|
A|-7-7---x-7-7---5-|-7-7---x-7-7---5-|-7-7---x-7-7---5-|-7-7---x-7-7---x-|
E|-----------------|-----------------|-----------------|-----------------|

G|-----------------|-----------------|-----------------|-----------------|
D|-----------------|-----------------|-----------------|-----------------|
A|-7-7---x-7-7---x-|-7-7---x-7-7---x-|-7-7---x-7-7---x-|-7-7---x-7-7---x-|
E|-----------------|-----------------|-----------------|-----------------|

G|-----------------|-----------------|-----------------|-----------------|
D|-----------------|-----------------|-----------------|-----------------|
A|-0-0---x-0-0---x-|-0-0---x-0-0---x-|-0-0---x-0-0---x-|-0-0---x-0-0---x-|
E|-----------------|-----------------|-----------------|-----------------|

G|-----------------|-----------------|-----------------|-----------------|
D|-----------------|-----------------|-----------------|-----------------|
A|-7-7---x-7-7---5-|-7-7---x-7-7---5-|-7-7---x-7-7---5-|-7-7---x-7-7-7\--|
E|-----------------|-----------------|-----------------|-----------------|

G|-----------------|-----------------|-----------------|-------------------|
D|-----------------|-----------------|-----------------|-------------------|
A|-----------------|-----------------|-0-0---x-0-0---x-|-0-0---x-0-0-x-x-x-|
E|-2-2---x-2-2---x-|-2-2---x-2-2---x-|-----------------|-------------------|

G|-----------------|-----------------|-----------------|-----------------|
D|-----------------|-----------------|-----------------|-----------------|
A|-----------------|-----------------|-0-0---x-0-0---x-|-0-0---x-0-0-12\-|
E|-2-2---x-2-2---x-|-2-2---x-2-2---x-|-----------------|-----------------|


Outro
G|----9-9----9--|----9-9----9--|----9-9----9--|----9-9----9--|
D|--------------|--------------|--------------|--------------|
A|-7------7-----|-7------7-----|-7------7-----|-7------7-----| x3
E|--------------|--------------|-0------------|--------------|

G|----9-9----9--|----9-9----9--|--------------|--------------|
D|--------------|--------------|----7-7----7--|----7-7----7--|
A|-7------7-----|-7------7-----|-0------0-----|-0------0-----|
E|--------------|-0------------|--------------|--------------|
 
G|---------------------|---------------------|
D|-----7---------7-----|-----7---------7-----|
A|-0-7---7-0-0-7---7-0-|-0-7---7-0-0-7---7-0-|
E|---------------------|---------------------|

G|----9-9----9--|----9-9----9--|----9-9----9--|----9-9----9--|
D|--------------|--------------|--------------|--------------|
A|-7------7-----|-7------7-----|-7------7-----|-7------7-----| x3
E|--------------|--------------|-0------------|--------------|

G|----9-9----9--|----9-9----9--|--------------|--------------|
D|--------------|--------------|----7-7----7--|----7-7----7--|
A|-7------7-----|-7------7-----|-0------0-----|-0------0-----|
E|--------------|-0------------|--------------|--------------|
 
G|---------------------|---------------------|
D|-----7---------7-----|-----7---------7-----|
A|-0-7---7-0-0-7---7-0-|-0-7---7-0-0-7---7-0-|
E|---------------------|---------------------|

G|----9-9----9--|----9-9----9--|----9-9----9--|----9-9----9--|
D|--------------|--------------|--------------|--------------|
A|-7------7-----|-7------7-----|-7------7-----|-7------7-----| x3
E|--------------|--------------|-0------------|--------------|

G|----9-9----9--|----9-9----9--|--------------|--------------|
D|--------------|--------------|----7-7----7--|----7-7----7--|
A|-7------7-----|-7------7-----|-0------0-----|-0------0-----|
E|--------------|-0------------|--------------|--------------|
 
G|---------------------|---------------------|
D|-----7---------7-----|-----7---------7-----|
A|-0-7---7-0-0-7---7-0-|-0-7---7-0-0-7---7-0-|
E|---------------------|---------------------|

G|----9-9----9--|----9-9----9--|----9-9----9--|----9-9----9--|
D|--------------|--------------|--------------|--------------|
A|-7------7-----|-7------7-----|-7------7-----|-7------7-----| x3
E|--------------|--------------|-0------------|--------------|

G|----9-9----9--|----9-9----9--|--------------|--------------|
D|--------------|--------------|----7-7----7--|----7-7----7--|
A|-7------7-----|-7------7-----|-0------0-----|-0------0-----|
E|--------------|-0------------|--------------|--------------|
 
G|---------------------|---------------------|
D|-----7---------7-----|-----7---------7-----|
A|-0-7---7-0-0-7---7-0-|-0-7---7-0-0-7---7-0-| Fade-out
E|---------------------|---------------------|





Comments


Popular Pink Floyd tabs & chords
Another Brick In The Wall Part Bass Tabs
Coming Back To Life 2 Bass Tabs
The Gold Its In The Chords
Any Colour You Like Tabs
Breathe Tabs
Buring Tabs
Corporal Clegg 1 Tabs
Great Gig In The Sky Tabs
Lucifer Sam 1 Tabs
San Tropez Tabs


Song lyrics



↑ Back to top | Tablatures and chords are parodies/interpretations of the original songs. You may use it for private study, scholarship, research or language learning purposes only
© 2014 AZChords.com Contact us | Privacy policy | DMCA | Add/correct tabs | Request tabs | Top 50 tabs