» » »

Set The Controls For The Heart Of The Su Bass tabs (ver.1)

Artists:  A B C D E F G H I J K L M N O P Q R S T U V W X Y Z # 

Set The Controls For The Heart Of The Su Bass tabs (ver.1)

Pink Floyd
Rating:
0/5 (0 votes)

Hard to play? Try these video lessons and learn fast.
                Figure 1:
   e  e  e  q. q   e  e  e  e  h
G|---------------|---------------|
D|-2--2--2--3--2-|-2-----------2-|
A|---------------|----5--5--5----|
E|---------------|---------------|

Figure 2:
   e  e  e  q. q   e  e  e  e  h
G|-2--2--2--3--2-|-2-----------2-|
D|---------------|----5--5--5----|
A|---------------|---------------|
E|---------------|---------------|

Figure 3:
   e  e  e  e  q. e+e e  e  e  h 
G|----------2-------|------------|  The last note of the first
D|-2--2--2-----5--5-|-3--3--3--2-|  measure here is also the
A|------------------|------------|  first note of the second 
E|------------------|------------|  (two tied eighth notes).

Figure 4:
   q  e  e  e  q.
G|---------------|
D|----2--2--2--2-|
A|-5-------------|
E|---------------|
            
Hard to play? Try these video lessons and learn fast. | Correct




comments powered by Disqus
↑ Back to top | Tablatures and chords are parodies/interpretations of the original songs. You may use it for private study, scholarship, research or language learning purposes only