» » »

Pink Floyd, Scream Thy Last Scream Tabs (ver.1)

Artists:  A B C D E F G H I J K L M N O P Q R S T U V W X Y Z # 

Scream Thy Last Scream Tabs (ver.1)

Pink Floyd Tabs
 Rating:
4/5 (4 votes)
Scream Thy Last Scream lessons Tabs too difficult? Try these video lessons and learn fast
                I couldn't find a tab for the solo, so I made one myself... It may not be that correct 

e|----------------------------------------------------------------------------|
B|-7/11----------------1010---7-9-10--12--10-------9-10-12--------------------|
G|------10-7--------6-9-----10------10--12--10--10---------14-10-12-11-10-9-10|
D|-----------6~~--7-----------------------------------------------------------|
A|----------------------------------------------------------------------------|
E|----------------------------------------------------------------------------|

   F      G         A
e|-----------------------0~~------------------------------|
B|------1~~-----3~~----2------11-------13~-------11--14~~-|
G|---2-------0-------------------10-----------11----------|
D|-3--------------------------------10-----11-------------|
A|------------------0-------------------------------------|
E|--------3-----------------------------------------------|
         (2)
            
Submit corrections

comments powered by Disqus
↑ Back to top | Pink Floyd Tabs for Scream Thy Last Scream. Lyrics for acoustic guitar and electric guitar. Tablatures and chords are parodies/interpretations of the original songs. You may use it for private study, scholarship, research or language learning purposes only