» » »

Pink Floyd, Remember A Day Bass tabs (ver.1)

Artists:  A B C D E F G H I J K L M N O P Q R S T U V W X Y Z # 

Remember A Day Bass tabs (ver.1)

Pink Floyd Tabs
Rating:
0/5 (0 votes)
Hard to play? Try these video lessons and learn fast.
                Pink Floyd   A Saucerful of Secrets (1968)
Remember A Day


Tuning: Standard


G|-------------------------------1616---------------1616-----------------|
D|----------------------------14-----16-17-19----14-----16-17-19---------|
A|-----------------------------------------------------------------------|
E|-0--2-3-5---0--2-3-5---------------------------------------------------|

x5
             Verse 1
G|-----------------|
D|------------999--|     I dont know if this is okay but it sounds nice
A|----7-777--------|         
E|-----------------| 
 

G|------------------------------------------------------------------------|
D|--------------------999------999------999------999------999-------------|
A|--10----------7-777-----7-777----7-777----7-777----7-777----10------7---|       
E|-------10------------------------------------------------------10-------| 

       Bridge
G|-------------------------------------------------------------|
D|-------------------------------------------------------------|
A|-------------------------------------------------------------|
E|---0------0------0-------0-----------------------------------|

      Verse 2 Repeat verse 1

Chorus  x2

G|----------------------------------16----16---------16----16---16-------|
D|------------------------------14-----14---------------14----14---------|
A|-----0----------5------------------------------------------------------|
E|-----------3--------0--------------------------------------------------|



After the chorus,      x16

G|------------------16-----16---|
D|--------------14-----14-------|
A|------------------------------|
E|------------------------------|



Repeat verse and chorus

Outro

Outro needs improvisation

G|------------------16-----16---|
D|--------------14-----14-------|
A|------------------------------|
E|------------------------------|


The End.
            

comments powered by Disqus
↑ Back to top | Pink Floyd Bass for Remember A Day. Lyrics for acoustic guitar and electric guitar. Tablatures and chords are parodies/interpretations of the original songs. You may use it for private study, scholarship, research or language learning purposes only