>
 >
Pow R Toc H

Pow R Toc H Guitar Tabs

Pink Floyd - Pow R Toc H chords, tabs, tablatures, lyrics

Guitar lessons | Add/correct | Request | Top 50 tabs Artists:  A B C D E F G H I J K L M N O P Q R S T U V W X Y Z 0-9

Pow R Toc H Guitar Tabs – Pink Floyd

CD, Sheet music, Poster

Do you like Pow R Toc H? Share with your friends now
Bass TabsTabs
Intro

Guitar 1 (Bass aranged fo guitar)
e--------------------------|
B--------------------------|
G--------------------------|
D--------------------------|
A-10-----10-----10-----10--|
E--------------------------|

Next part

Guitar 1
e------------------------------|
B------------------------------|
G------------------------------|     Play this bit a lot of times.
D------3---3-5---------3---3-5-|
A--------5---------------5-----|
E-3--------------3-------------|

Then

Guitar 2 (normal guitar)

e-3----------------2----------------1----------------0----------------|
B-3----------------2----------------1----------------0----------------|
G-4--4-4-4-4-4-4-4-3--3-3-3-3-3-3-3-2--2-2-2-2-2-2-2-1--1-1-1-1-1-1-1-|
D-5--5-5-5-5-5-5-5-4--4-4-4-4-4-4-4-3--3-3-3-3-3-3-3-2--2-2-2-2-2-2-2-|
A-5--5-5-5-5-5-5-5-4--4-4-4-4-4-4-4-3--3-3-3-3-3-3-3-2--2-2-2-2-2-2-2-|
E-3--3-3-3-3-3-3-3-2--2-2-2-2-2-2-2-1--1-1-1-1-1-1-1-0--0-0-0-0-0-0-0-|


e---0-0-0-0-0-0-0-0-0-0-0-0-0-0-0-0-0-0-0-0-0-0-0-0-|
B---5-5-5-5-5-5-5-5-5-5-5-5b6r5-5-5-5-5-5b6r5-5-5-5-|
G---------------------------------------------------|
D---------------------------------------------------|
A---------------------------------------------------|
E-0-------------------------------------------------|


As the keyboard does a solo, Syd plays the above riff but slides up and down the 
and play random notes while playing the open e.

Next part

Guitar 2
e---------------------------------------------------------|
B---------------------------------------------------------|
G-------------------22---22---22---22---22---22---22---22-|
D-------2-----------33---33---33---33---33---33---33---33-|
A---------2-------3-33-3-33-3-33-3-33-3-33-3-33-3-33-3-33-|
E-0-------------0-1-11-1-11-1-11-1-11-1-11-1-11-1-11-1-11-|

e-----------------------------------------|
B-----------------------------------------|
G---33---33---33---33---33---33---33---33-|
D---44---44---44---44---44---44---44---44-|
A-4-44-4-44-4-44-4-44-4-44-4-44-4-44-4-44-|
E-2-22-2-22-2-22-2-22-2-22-2-22-2-22-2-22-|

e------------------------------------------3-|
B------------------------------------------3-|
G---44---44---44---44---44---44---44---44--4-|
D---55---55---55---55---55---55---55---55--5-|
A-5-55-5-55-5-55-5-55-5-55-5-55-5-55-5-55--5-|
E-3-33-3-33-3-33-3-33-3-33-3-33-3-33-3-33--3-|

Next part

Guitar 1

e-------------------------------------------|
B-------------------------------------------|
G-------------------------------------------|     X2
D---5----3----2----0------------------------|
A--------------------------------------3--5-|
E-3----3----3----3-------3------------------|


Then

Guitar 1

e--------------------------------------------|
B--------------------------------------------|
G--------------------------------------------|
D---5----3----2----0-------------------------|
A--------------------------------------3--5--|    x5
E-3----3----3----3-------3-------------------|

e--3----1----0------------3----1----0--------|
B----------------3----------------------3----|
D--------------------------------------------|
G--------------------------------------------|
A--------------------------------------------|
E--------------------------------------------|

Outro

Guitar 2

 Bend the not randomly every now and then.
e--------------------------------------|
B-3-3-3-3-3-3-3-3-3-3-3-3-3-3-3-3-3-3--|
G--------------------------------------|
D--------------------------------------|
A--------------------------------------|
E--------------------------------------|


The end





Comments


Popular Pink Floyd tabs & chords
Another Brick In The Wall Part 2 Bass Tabs
Waiting For The Worms Bass Tabs
Another Brick In The Wall (Part 1) Chords
Run Like Hell Chords
See Emily Play Chords
The Narrow Way Part 3 Chords
Brain Damage 2 Tabs
Mother 5 Tabs
Wish You Were Here Tabs
Wots ... Uh, The Deal Tabs


Song lyrics



↑ Back to top | Tablatures and chords are parodies/interpretations of the original songs. You may use it for private study, scholarship, research or language learning purposes only
© 2014 AZChords.com Contact us | Privacy policy | DMCA | Add/correct tabs | Request tabs | Top 50 tabs