>
 >
Poles Apart

Poles Apart Bass Tabs

Pink Floyd - Poles Apart chords, tabs, tablatures, lyrics

Guitar lessons | Add/correct | Request | Top 50 tabs Artists:  A B C D E F G H I J K L M N O P Q R S T U V W X Y Z 0-9

Poles Apart Bass Tabs – Pink Floyd

CD, Sheet music, Poster

Do you like Poles Apart? Share with your friends now
Bass TabsTabsTabs v2

Note: this tab are missing some details, but it works for me. 


                                Poles Apart
                                Pink Floyd
                             The Division Bell

Intro:
G|--------------------|-------------------|----11--(11)/12\11--9--7--|
D|--------------------|-------------------|--------------------------|      
A|--------------------|-------------------|--------------------------|
D|--------------------|-------------------|--------------------------|

G|-9~~~~~~~-----------|--(9)--------------|--------------------|
D|--------------------|-------------------|--------------------|
A|--------------------|-------------------|--------------------|
D|--------------------|-------------------|--------------------|

G|--------------------|-------------------|--------------------|
D|--------------------|-------------------|--------------------|
A|-------10--10\9/10--|--12~~~~-----------|--------------------|
D|--------------------|-------------------|--------------------|

G|--------------------|-------------------|--------------------|
D|--------------------|-------------------|--------------------|
A|--------------------|--(12)-------------|--------------------|
D|--------------------|-------------------|--------------------|

G|----11-11-11-(11)/12\9---|-----11---9---7---9-----|------(9)----------|
D|-------------------------|------------------------|-------------------|
A|-------------------------|------------------------|-------------------|
D|-------------------------|------------------------|-------------------|

G|----------------------------|
D|----------------------------|
A|-----/10---\---9---7---5----|
D|----------------------------|

Pre- verse:
G|-------------------|-------------------|--------------------|
D|-------------------|-------------------|--------------------|
A|-------------------|-------------------|--------------------|
D|----0--------------|----(0)------------|----(0)-------------|

G|-------------------|
D|-------------------|
A|-------------------|
D|----(0)--------1--/|

1st verse:
G|-----------------|-----------------|-----------------|----------------|
D|-----------------|-----------------|-----------------|----------------|
A|-----------------|-----------------|-----------------|----------------|
D|/5---------------|--(5)------------|--(5)------------|--(5)-----------|

G|-----------------|-----------------|-----------------|----------------|
D|-----------------|-----------------|-----------------|----------------|
A|-----------------|-----------------|-----------------|----------------|
D|--0--------------|--(0)------------|--(0)------------|--(0)------1--/-|

G|-----------------|-----------------|-----------------|----------------|
D|-----------------|-----------------|-----------------|----------------|
A|-----------------|-----------------|-----------------|----------------|
D|/5---------------|--(5)------------|--(5)------------|--(5)-----------|

G|-----------------|-----------------|-----------------|----------------|
D|-----------------|-----------------|-----------------|----------------|
A|-----------------|-----------------|-----------------|----------------|
D|--0--------------|--(0)------------|--(0)------------|--(0)-----------|

1st chorus:
G|-------------------|------------------|-----------------------|
D|-------------------|------------------|-----------------------|
A|-/-9--\--7--\--5-\-|---4-----2--------|----9----10----9---7---|
D|-------------------|--------------7---|-----------------------|

G|-------------------------|------------------------|
D|-------------------------|----4---5---4---2---0---|
A|---9--9--7---------------|------------------------|
D|------------7--9--9--7---|------------------------|

G|----------4---2---4---4---2------|
D|---------------------------------|
A|---4---4-------------------------|
D|---------------------------------|

G|------------------|----------------|----------------|-----------------|
D|------------------|----------------|----------------|-----------------|
A|------------------|----------------|----------------|-----------------|
D|---0--------------|--(0)-----------|--(0)-----------|--(0)------------|

2nd verse:
G|-----------------|-----------------|-----------------|-----------------|
D|-----------------|-----------------|-----------------|-----------------|
A|-----------------|-----------------|-----------------|-----------2-----|
D|-5-------------4-|-5---------------|-5-------------4-|-5---------------|

G|-----------------|-----------------|-----------------|-----------------|
D|-----------------|-----------------|-----------------|-----------------|
A|-----------------|-----------------|-----------------|-----------------|
D|---0-----------0-|-0---------------|---0-----------0-|-0---------1--/--|

G|-----------------|-----------------|-----------------|-----------------|
D|-----------------|-----------------|-----------------|-----------------|
A|-----------------|-----------------|-----------------|-----------2-----|
D|-5-------------4-|-5---------------|-5-------------4-|-5---------------|

G|-----------------|-----------------|-----------------|-----------------|
D|-----------------|-----------------|-----------------|-----------------|
A|-----------------|-----------------|-----------------|-----------------|
D|---0-----------0-|-0---------------|---0-----------0-|-0---------------|

2nd chorus:
G|-------------------|------------------|-----------------------|
D|-------------------|------------------|-----------------------|
A|-/-9--\--7--\--5-\-|---4-----2--------|----9----10----9---7---|
D|-------------------|--------------7---|-----------------------|

G|-------------------------|------------------------|
D|-------------------------|----4---5---4---2---0---|
A|---9--9--7---------------|------------------------|
D|------------7--9--9--7---|------------------------|

G|----------4---2---4---4---2------|
D|---------------------------------|
A|---4---4-------------------------|
D|---------------------------------|

G|------------------|----------------|----------------|-----------------|
D|------------------|----------------|----------------|-----------------|
A|------------------|----------------|----------------|-----------------|
D|---0------------0-|-0--------------|--0-----------0-|-0---------------|

Bridge:
G|-----------------|-----------------|-----------------|-----------------|
D|-----------------|-----------------|-----------------|-----------------|
A|---4-------------|--4------------2-|-0---------------|-0-----------0---|
D|-----------------|-----------------|-----------------|-----------------|

G|-----------------|-----------------|-----------------|-----------------|
D|-----------------|-----------------|-----------------|-----------------|
A|-----------------|-----------------|-----------------|-------------0---|
D|---1-------------|--1------------0-|-2---------------|-2---------------|

G|-----------------|-----------------|-----------------|-----------------|
D|-----------------|-----------------|-----------------|-----------------|
A|---4-------------|--4------------2-|-0---------------|-0-----------0---|
D|-----------------|-----------------|-----------------|-----------------|

G|-----------------|-----------------|-----------------|-----------------|
D|-----------------|-----------------|-----------------|-----------------|
A|---0-------------|--0------------2-|-----------------|-----------------|
D|-----------------|-----------------|-2---------------|-2---------------|

G|-----------------|-----------------|-----------------|-----------------|
D|-----------------|-----------------|-----------------|-----------------|
A|-----------------|-----------------|-----------------|-----------------|
D|---0-------------|--(0)------------|--(0)------------|--(0)------------|

Orchestra break:
                 x16
G|----------------|
D|----------------|
A|----------------|
D|----------------|

G|------------------|-----------------|-----------------|-----------------|
D|------------------|-----------------|-----------------|-----------------|
A|------------------|-----------------|-----------------|-----------------|
D|---0--------------|--(0)------------|---0-------------|-----1-----/-----|

3rd verse:
G|-----------------|-----------------|-----------------|-----------------|
D|-----------------|-----------------|-----------------|-----------------|
A|-----------------|-----------------|-----------------|-----------2-----|
D|-5-------5-5---4-|-5-------5-5---4-|-5-------5-5---4-|-5-------5-------|

G|-----------------|-----------------|-----------------|-----------------|
D|-----------------|-----------------|-----------------|-----------------|
A|-----------------|-----------------|-----------------|-----------5-----|
D|-0-------0-0---0-|-0-------0-0---0-|-0-------0-0---0-|-0-------0-------|

G|-----------------|-----------------|-----------------|-----------------|
D|-----------------|-----------------|-----------------|-----------------|
A|-----------------|-----------------|-----------------|-----------2-----|
D|-5-------5-5---4-|-5-------5-5---4-|-5-------5-5---4-|-5-------5-------|

G|-----------------|-----------------|-----------------|-----------------|
D|-----------------|-----------------|-----------------|-----------------|
A|-----------------|-----------------|-----------------|-----------5-----|
D|-0-------0-0---0-|-0-------0-0---0-|-0-------0-0---0-|-0-------0-------|

G|-----------------|-----------------|-----------------|-----------------|
D|-----------------|-----------------|-----------------|-----------------|
A|-----------------|-----------------|-----------------|-----------2-----|
D|-5-------5-5---4-|-5-------5-5---4-|-5-------5-5---4-|-5-------5-------|

G|-----------------|-----------------|-----------------|-----------------|
D|-----------------|-----------------|-----------------|-----------------|
A|-----------------|-----------------|-----------------|-----------------|
D|-0-------0-0---0-|-0-------0-0---0-|-0-------0-0---0-|-0-------0-------|

3rd chorus:
G|-------------------|------------------|-----------------------|
D|-------------------|------------------|-----------------------|
A|-/-9--\--7--\--5-\-|---4-----2--------|----9----10----9---7---|
D|-------------------|--------------7---|-----------------------|

G|-------------------------|------------------------|
D|-------------------------|----4---5---4---2---0---|
A|---9--9--7---------------|------------------------|
D|------------7--9--9--7---|------------------------|

G|----------4---2---4---4---2------|
D|---------------------------------|
A|---4---4-------------------------|
D|---------------------------------|

G|-----------------|----------------|----------------|-----------------|
D|-----------------|----------------|----------------|-----------------|
A|-----------------|----------------|----------------|-----------5-----|
D|---0-----------0-|-0--------------|--0-----------0-|-0-------0-------|

Guitar solo:
G|-----------------|----------------|----------------|-----------------|
D|-----------------|-----5------5---|----------------|-----------------|
A|-----------------|--------------5-|----------------|-----------2-----|
D|-5-------------4-|-5------5-------|-5------------4-|-5---------------|

G|-----------------|-----------5----|----------------|-----------------|
D|-----------------|-------------5--|----------------|-----------------|
A|-----------------|--------/5------|----------------|-----------5-----|
D|-0-------------0-|-0--------------|-0------------0-|-0---------------|

G|-----------------|----------------|----------------|-----------------|
D|-----------------|----------------|----------------|-----------------|
A|-----------------|----------------|----------------|-----------2-----|
D|-5-------------4-|-5--------------|-5------------4-|-5---------------|

G|-----------------|--------11-12-11-9-|-11-------------|-----------------|
D|-----------------|-------11----------|----------------|-----------------|
A|-----------------|-----/9------------|----------------|-----------5-----|
D|-0-------------0-|-0-----------------|-0------------0-|-0---------------|

G|-----------------|----------------|----------------|-----------------|
D|-----------------|----------------|----------------|-----------------|
A|-----------------|----------------|----------------|-----------2-----|
D|-5-------------4-|-5--------------|-5------------4-|-5---------------|

G|-----------------|----------------|----------------|-----------------|
D|-----------------|----------------|----------------|-----------------|
A|-----------------|----------------|----------------|-----------5-----|
D|-0-------------0-|-0--------------|-0------------0-|-0---------------|

G|-----------------|----------------|----------------|-----------------|
D|-----------------|----------------|----------------|-----------------|
A|-----------------|----------------|----------------|-----------2-----|
D|-5-------------4-|-5--------------|-5------------4-|-5---------------|

G|-----------------|----------------|----------------|-----------------|
D|-----------------|----------------|----------------|-----------------|
A|-----------------|----------------|----------------|-----------5-----|
D|-0-------------0-|-0--------------|-0------------0-|-0---------------|

G|-----------------|----------------|----------------|-----------------|
D|-----------------|----------------|----------------|-----------------|
A|-----------------|----------------|----------------|-----------2-----|
D|-5-------------4-|-5--------------|-5------------4-|-5---------------|

G|-----------------|----------------|----------------|-----------------|
D|-----------------|----------------|----------------|-----------------|
A|-----------------|----------------|----------------|-----------5-----|
D|-0-------------0-|-0--------------|-0------------0-|-0---------------|

  begin fade
G|-----------------|----------------|----------------|-----------------|
D|-----------------|----------------|----------------|-----------------|
A|-----------------|----------------|----------------|-----------2-----|
D|-5-------------4-|-5--------------|-5------------4-|-5---------------|

G|-----------------|----------------|----------------|-----------------|
D|-----------------|----------------|----------------|-----------------|
A|-----------------|----------------|----------------|-----------5-----|
D|-0-------------0-|-0--------------|-0------------0-|-0---------------|

G|-----------------|----------------|----------------|-----------------|
D|-----------------|----------------|----------------|-----------------|
A|-----------------|----------------|----------------|-----------2-----|
D|-5-------------4-|-5--------------|-5------------4-|-5---------------|

                                                     fade out
G|-----------------|----------------|----------------|-----------------|
D|-----------------|----------------|----------------|-----------------|
A|-----------------|----------------|----------------|-----------5-----|
D|-0-------------0-|-0--------------|-0------------0-|-0---------------|


Thetabmaker93 out.





Comments


Popular Pink Floyd tabs & chords
Another Brick In The Wall (Part 2) 2 Bass Tabs
Set The Controls For The Heart Of The Sun 2 Bass Tabs
Another Brick In The Wall (Part 2) 1 Chords
Green Is The Color Chords
Julia Dream Chords
Tide Is Turning Chords
Another Brick In The Wall 1 Tabs
Shine On Pt5 Tabs
What Do You Want From Me Tabs
The Gold Its In The Ukulele


Song lyrics



↑ Back to top | Tablatures and chords are parodies/interpretations of the original songs. You may use it for private study, scholarship, research or language learning purposes only
© 2014 AZChords.com Contact us | Privacy policy | DMCA | Add/correct tabs | Request tabs | Top 50 tabs