» » »

Pink Floyd, Pigs On The Wing Tabs (ver.4)

Artists:  A B C D E F G H I J K L M N O P Q R S T U V W X Y Z # 

Pigs On The Wing Tabs (ver.4)

Pink Floyd Tabs
Rating:
0/5 (0 votes)
Pigs On The Wing lessons Tabs too difficult? Try these video lessons and learn fast
                This is Pigs in the wing Pt1 and Pt2 with a solo... This is how it origan*lly was but was later split into pt1 and pt2 and minus a very nice solo....

   
chords used...

G    Gsus4  G(frm2)    C   Csus4   A    Am    A7     D   
     E --3--  --3--   -----   --0-- --0-- --0-- --0-- --3-- --2-- 
     B --3--  --3--   --0--   --1-- --1-- --2-- --1-- --2-- --3--  
     G --0--  --0--   --0--   --0-- --0-- --2-- --2-- --2-- --2--  
     D --0--  --0--   --0--   --2-- --3-- --2-- --2-- --2-- --0--  
     A --2--  --3--   -----   --3-- --X-- --0-- --0-- --0-- -----   
     E --3--  --X--   -----   ----- ----- ----- ----- ----- -----   


       Dsus4   F   Am7/B
     E --3-- --1-- --0-- <--- This chord that I call Am7/B is probably not sorry.
     B --3-- --1-- --1--      
     G --2-- --2-- --0--      
     D --0-- --3-- --2--
     A ----- --3-- --2--
     E ----- --1-- -----


for the intro play G then C a couple times listen and you'll get the hang of it.

intro: G C G C


G             C         Csus4      C                   
     If you didn't care                        
     

                      G      Gsus4      G
     what happened to me


                  C          Csus4      C
     And I didn't care


          G       Gsus4     G             A               G(frm2) A G(frm2)
     For you.                    We would zig-zag our way


                 A7                     G              C
     Through the boredom and pain.      Occasionally   glancing


   D              G      Am             F                 Am         F
   up through the rain       Wondering       which of the buggers to blame


     C    Am7/B   Am         D        Dsus4   D               G
                         And watching         for pigs on the wing.

solo:

-----------------------------------------------------------|
--15s17-17-13-15-17-17b18-15-17-15-13-15b17-15-13-12-13-12-|
-----------------------------------------------------------|
-----------------------------------------------------------|
-----------------------------------------------------------|
-----------------------------------------------------------|

-----------------------------------------------12-15-17-15-|
-----17b20 17b20 15 17 17 17b20 15 17 17----13-------------|
--12-------------------------------------14----------------|
-----------------------------------------------------------|
-----------------------------------------------------------|
-----------------------------------------------------------|

--14-------------------------------------------------------|
-----15----------------------------------------------------|
--------14-12-11-------------------------------------------|
-----------------12------12-12s14-14-14-14s16-16-16-16b17--|
--------------------12-9-----------------------------------|
-----------------------------------------------------------|

--------------------15-15-15h17h15h17-15-------------------|
-----------------------------------------15h17p15-15b17b15-|
-----------------------------------------------------------|
--17b19-19b21-19b22----------------------------------------|
-----------------------------------------------------------|
-----------------------------------------------------------|

-----------------------------------------------------------|
--12-------------------------------------------------------|
----14-14b16-----------------------------------------------|
-----------------------------------------------------------|
-------------10-10-12s14-10-10-----------------------------|
-----------------------------------------------------------|

G             C            Csus4         C
      You know that I care             

                          G      Gsus4    G
      what happens to you

                           C     Csus4      C
      And I know that you care 

                G    Gsus4    G             A             G(frm2) A G(frm2)
      for me too                   So I don’t feel alone

                   A7                     G                   C
      Or the weight of the stone         Now that I’ve found somewhere safe

     D               G       Am                F         Am                F
      To bury my bone         And any fool knows         a dog needs a home  

     C     Am7/B    Am      D          Dsus4    D                 G
                             A shelter          from pigs on the wing.


amazing song you can download this version online probably a VERY good solo...its a shame they took it out  :(
            
Submit corrections

comments powered by Disqus
↑ Back to top | Pink Floyd Tabs for Pigs On The Wing. Lyrics for acoustic guitar and electric guitar. Tablatures and chords are parodies/interpretations of the original songs. You may use it for private study, scholarship, research or language learning purposes only