>
 >
On The Turning Away

On The Turning Away Bass Tabs

Pink Floyd - On The Turning Away chords, tabs, tablatures, lyrics

Guitar lessons | Add/correct | Request | Top 50 tabs Artists:  A B C D E F G H I J K L M N O P Q R S T U V W X Y Z 0-9

On The Turning Away Bass Tabs – Pink Floyd

CD, Sheet music, Poster

Do you like On The Turning Away? Share with your friends now
Bass TabsChordsTabsTabs v2Ukulele
-----------------------------------------------------------------------------
                      ON THE TURNING AWAY - Pink Floyd
-----------------------------------------------------------------------------


Tuning: E A D G

INTRO
|--------|
|--------|
|--------|
|--------|

VERSE 1
|--------|--------|--------|--------|--------|--------|------------|
|--------|--------|--------|2-------|2-------|------2-|5:----------|
|------3-|5h7---5-|--3-----|----3---|------3-|----3---|4:5---------|
|3-------|--------|3-------|------3-|----3---|3-------|----3-------|

VERSE 2
|--------|-------------|--------|-------------|-----------|----------|-----------0---|
|--------|2-1/2h5p2--4-|5-------|2-222-0------|2-222-0----|----------|5:4-5---0h2--54|
|------3-|-------------|--3--3--|-------3-----|---------3-|----3-5/7-|4:-------------|
|3--33---|-------------|----3---|---------3-33|-------3---|3---------|---------------|

SOLO 1
|---------|----------------0|--2------|---------|-----2----|
|2--0200--|------001/2--1/2-|02-------|-----0020|----------|
|-------3-|--2/33------3----|---0---02|3--23----|0-0h2---02|
|---------|-3---------------|------3--|---------|----------|

|----------|7h9-----|---12p11----|----------|-----------|
|------2057|--------|------------|7/9-------|-----------|
|3-02/3----|--------|------------|-------12\|5/7---00---|
|----------|--------|------------|----------|--------5\2|

VERSE 3
|--------|-------------|----------|-----------|
|--------|2-1/2h5p2--0-|----------|2-222-0----|
|------3-|-------------|--33--3---|-------3---|
|3--33---|-------------|3----3----|---------3-|

|-----------|--------|-----------|--------------------|
|2-22-2\----|------2-|/20--------|5:-0h25p2-----------|
|---------3-|----3---|----3------|4:-------5p3--------|
|-------3---|3-------|-----3--33-|------------3--33-32|

OUTRO SOLO
|------------|-----------2/4202|----------|----------|
|----1/2---1/|2-1/2h5p2--------|2---0h2-0-|------4540|
|---3----3---|-----------------|----------|----------|
|0-----------|-----------------|---0------|3--33-----|

|-------------|----/774---4--|----------------|--------------|
|2--1/2h5p2---|--------757-75|-------5--------|--------------|
|-----------3-|--------------|---25/7---55----|-------020-0--|
|-------------|0-------------|0-----------6/75|3--32/3---3-32|

|------------|-------0h2---42-0|---------------|-----------------|
|------------|--0h2-----2\-----|2--------------|-----------------|
|-------023-2|-----------------|---------24/5-0|----------020--0-|
|0-00-03-----|0----0-----------|--00-0023------|3-33-/10\3---23-2|

|---------------------|-----/4447p4------|----------------|--------------|
|--2h5p2--------------|--2---------7-----|----/222----0000|--------------|
|------------22/3335p3|-------------/520-|-----------2----|-------020--0-|
|0-------0023---------|0--0-------------3|0-00----023-----|3-33-33---23-2|

|-------------|-----------------|--------------|----------------|
|-------------|-----/220--------|--------------|----------------|
|--------23333|---------200-3/50|--------23/5-0|--..---01/20--0-|
|0-00-023-----|0-00--------3----|0-00-023------|3-333-3-----23-2|

|------------|--------0-------|------------------------|-----------|
|--2---------|-------2-20-----|--2------------/5\----55|----5------|
|--------23-2|-----/5----20---|--------23/5-------5/7--|7\----0----|
|0--0-023----|0-00---------/53|0--0-023-----3----------|--3----332-|

|--------------|------------------|----------------|
|--------------|-----2h5p2---/20--|2-2h5p2---------|
|--------23-2p0|------------2---20|-----------23/5-|
|0-00-023------|0-00------0-------|--------023-----|





Comments


Popular Pink Floyd tabs & chords
Another Brick In The Wall Part 1 Bass Tabs
Atom Heart Mother Chords
Pigs On The Wing Chords
Another Brick In The Wall Pt 2 Tabs
Money 7 Tabs
Mother 5 Tabs
Mother Live Tabs
Pigs On The Wing 1 Tabs
Vegetable Man 1 Tabs
Comfortably Numb Ukulele


Song lyrics



↑ Back to top | Tablatures and chords are parodies/interpretations of the original songs. You may use it for private study, scholarship, research or language learning purposes only
© 2014 AZChords.com Contact us | Privacy policy | DMCA | Add/correct tabs | Request tabs | Top 50 tabs