» » »

One Of This Days Bass tabs (ver.1)

Artists:  A B C D E F G H I J K L M N O P Q R S T U V W X Y Z # 

One Of This Days Bass tabs (ver.1)

Pink Floyd
Rating:
0/5 (0 votes)

Hard to play? Try these video lessons and learn fast.
                Bass #1
(0:36)

G ||-------------------|------------------|------------------|------------------|
D ||-------------------|------------------|------------------|------------------|
A ||--2----2--2--2--2--|--2----2--2----2--|--2----2--2----2--|--2----2--2----2--|
E ||-------------------|------------------|------------------|------------------|
 
Both Basses begin at 0:49
Bass #1
G ||-------------------|------------------|------------------|------------------|
D ||-------------------|------------------|------------------|------------------|
A ||--2--2--2--2----2--|--2----2--2----2--|--2--2--2--2---2--|--2----2--2----2--|
E ||-------------------|------------------|------------------|------------------|

Bass #2
G ||--------------------------------------|------------------|------------------|
D ||--------------------------------------|------------------|------------------|
A ||--2-------2-----2--2----------2----2--|--2-------2----2--|-2--------2----2--|
E ||--------------------------------------|------------------|------------------|

Both Basses At 1:10
(Echo Off)
Bass #1
G ||-------------------|------------------|------------------|------------------|
D ||-------------------|------------------|------------------|------------------|
A ||-------------------|------------------|------------------|------------------|
E ||--5----5--5-----5--|--5--5--5--5---5--|-5----5--5-----5--|-5----5--5-----5--|

Bass #2
G ||-------------------|------------------|------------------|------------------|
D ||-------------------|------------------|------------------|------------------|
A ||-------------------|------------------|------------------|------------------|
E ||--5-------5--------|--5--------5---5--|-5-------5--------|-5-------5--------|

Repeat B again at 1:17
Bass #1
G ||-------------------|------------------|------------------|------------------|
D ||-------------------|------------------|------------------|------------------|
A ||--2--2--2--2----2--|--2----2--2----2--|--2--2--2--2---2--|--2----2--2----2--|
E ||-------------------|------------------|------------------|------------------|

Bass #2
G ||--------------------------------------|------------------|------------------|
D ||--------------------------------------|------------------|------------------|
A ||--2-------2-----2--2----------2----2--|--2-------2----2--|-2--------2----2--|
E ||--------------------------------------|------------------|------------------|
            
Hard to play? Try these video lessons and learn fast. | Correct




comments powered by Disqus
↑ Back to top | Tablatures and chords are parodies/interpretations of the original songs. You may use it for private study, scholarship, research or language learning purposes only