>
 >
Mother Live

Mother Live Guitar Tabs

Pink Floyd - Mother Live chords, tabs, tablatures, lyrics

Guitar lessons | Add/correct | Request | Top 50 tabs Artists:  A B C D E F G H I J K L M N O P Q R S T U V W X Y Z 0-9

Mother Live Guitar Tabs – Pink Floyd

CD, Sheet music, Poster

Do you like Mother Live? Share with your friends now
Tabs

                       Mother Extended Solo From "The Wall" At
                                     At 3:40

Legend:
1.Bend:       15b(17) [b] (Bend the 15 Fret full step)
2.Vibrato:    15~ [~]
3.Pull Off:   14p15 [p]
4.Hammer-On:  7h9 [h]
5.Slide Up:   7/9 [/]
6.Slide Down: 9\7 [\]
7.Release:    14b(16)r [r](Bend and then release to 14 fret)
8.Bend Down:  3bd         (Bend the string a little down)


e|---------------------------------------------|---------------------------------|
B|-----13b(15)--13b(15)--13p12--13-------------|---------------------------------|
G|--12-----------------------------------------|------5---5\4--------------------|
D|---------------------------------14p13--14~--|---------------------------------|
A|---------------------------------------------|-2/7----7------5~--2h3-3-3bd--3--|
E|---------------------------------------------|---------------------------------|

e|--------------------------------------------8----------------|
B|-------8--10b(12)--10b(12)--10b(12)--10p8--------------------|
G|--2/8-----------------------------------------9p8---9~-------|
D|-------------------------------------------------------------|
A|-------------------------------------------------------------|
E|-------------------------------------------------------------|

e|--10-12b(14)--10~--8-10(b12)--8~--8p7--8p7-------------|
B|--10---------------8-----------------------8-----------|
G|--11---------------9-------------------------7-5\4-----|
D|----------------------------------------------------5~-|
A|-------------------------------------------------------|
E|-------------------------------------------------------|

e|--------------|
B|--------------|
G|--12-12-12~---|
D|--12-12-12~---|    (It's a G chord, play it a few times)
A|--10-10-10~---|
E|--------------|

e|------------------------------------------|-----15b(17)--15b(17)--15-13-15-15b(17)--15~--|
B|------------------13------13-15-15b(17)---|--13------------------------------------------|
G|--13b(16)--13p12-------12-----------------|----------------------------------------------|
D|------------------------------------------|----------------------------------------------|
A|------------------------------------------|----------------------------------------------|
E|------------------------------------------|----------------------------------------------|

e|-----15b(17)-15b(17)--15--13p12-----------|-----15b(17)--15b(17)--15-13-15-15b(17)--15~--|
B|-13------------------------------13-------|--13------------------------------------------|
G|-------------------------------------12~--|----------------------------------------------|
D|------------------------------------------|----------------------------------------------|
A|------------------------------------------|----------------------------------------------|
E|------------------------------------------|----------------------------------------------|

e|-----15b(17)--15b(17)--13p12---------------|--------------------------------------|
B|-13--------------------------13------------|--------------------------------------|
G|--------------------------------12---------|-10s12-12b(14)--12(14)--10p9----------|
D|-----------------------------------14p15---|-----------------------------12-10-9~-|
A|-------------------------------------------|--------------------------------------|
E|-------------------------------------------|--------------------------------------|

e|-------------|
B|-------------|
G|---10s12-----|
D|-9-----------|
A|-------------|
E|-------------|

e|----------------------|
B|----------------------|
G|--9b(11)p7-10b(12)p9--|
D|----------------------|        (Play it 2 times)
A|----------------------|
E|----------------------|

e|-------------------------------|
B|-------------------------------|
G|--7h9b(11)--7----------5p4-----|
D|--------------10p9h10------5~--|
A|-------------------------------|
E|-------------------------------|





Comments


Popular Pink Floyd tabs & chords
Cirrus Minor Chords
Outside The Wall 1 Chords
Childhoods End Tabs
Matilda Mother Tabs
Shine On You Crazy Diamond Part 3 Tabs
Young Lust 1 Tabs
Bike Ukulele
Echoes Ukulele
Money Ukulele
The Final Cut Ukulele


Song lyrics



↑ Back to top | Tablatures and chords are parodies/interpretations of the original songs. You may use it for private study, scholarship, research or language learning purposes only
© 2014 AZChords.com Contact us | Privacy policy | DMCA | Add/correct tabs | Request tabs | Top 50 tabs