» » »

Money Tabs (ver.3)

Artists:  A B C D E F G H I J K L M N O P Q R S T U V W X Y Z # 

Money Tabs (ver.3)

Pink Floyd
Rating:
0/5 (0 votes)

Tabs too difficult? Try these video lessons and learn fast.
                FIRST SOLO OF 'MONEY'

                                 BY PINK FLOYD

                      FROM THE ALBUM 'THE DARK SIDE OF THE MOON'

This is the first solo of Money. I'll post the rest of it 
when i get a chance. See i actually will, not like other people
who say they will and never get around to it. Honestly. Look 
i'm just a busy person, okay? I can't help it.Please stop sending 
threatning emails, i have nothing to do with the Taliban.
Enjoy.


S=SLIDE
BU=BEND UP
RB=RELEASE BEND





SOLO STARTS WITH THIS RIFF
---4-----------------------------------------------------------------------
---4-X-8-------------------------------------------------------------------
---2-----------------------------------------------------------------------

THEN


------------------------------------------------------------10-------------
----------------10--(12 BU)----7-10---------------(11 S)-12----12-12-------
---9-(11 BU)--7---------------------9-(11 BU)-7----------------------------


---------12-(14 BU)-(15 RB)----------------------------------7-------------
--12-12--------------------12-12----------------------------7-----10-(10 S)
----------------------------------9-(11 BU)-7--9----9-(11 BU)--------------
------------------------------------------------9--------------------------


----10--12-12--(14-BU)-------10--12--(14-BU)---10-12-----------------------
12--------------------12-12---------------------------12-10----------------
-------------------------------------------------------------(10-S)-9--7---


------------------------------------------------------------7-----10-------
---------------------------------------7--7--------------------------------
--9-7----------------------7--9--7-----------9----9--(11 BU)---------------
------(8 S)-7--5-----7--9----------9---------------------------------------
------------------7--------------------------------------------------------


---------------------10--12---12---(14 BU)-(12 RB)-----------14--(17 BU)---
----(10-S)-12--12------------------------------------12--12----------------


---14--12------------------------------------------------------------------
------------15--12------------------------------10--(12 BU)--10--8--7------
--------------------14----(11 S)-9--(9 S)--11------------------------------


---------------------------------------------(S)---------------------7-----
-------------------------7--------9------(10-10-10-10)---------------------
-----9--7--6-------------7--------9------(11-11-11-11)----9-(11 BU)--------
---------------10--9----------9------9-------------------------------------
This is where the second guitar starts with that fuzzy solo. 
            
Tabs too difficult? Try these video lessons and learn fast.


comments powered by Disqus
↑ Back to top | Tablatures and chords are parodies/interpretations of the original songs. You may use it for private study, scholarship, research or language learning purposes only