» » »

Money Good Bass tabs (ver.1)

Artists:  A B C D E F G H I J K L M N O P Q R S T U V W X Y Z # 

Money Good Bass tabs (ver.1)

Pink Floyd
Rating:
0/5 (0 votes)

Tabs too difficult? Try these video lessons and learn fast.
                (Sion)
Pink Floyd
Money

G|---4--------------------| x 10
D|-----4--------0---------|
A|-2-----2--0-2-----------|
 E|----------------2---------------------------|

G|-----------------------|
D|---0--------0----------|
A|-2---2--0-2------------|
 E|------------2-----------------------------|

G|---4--------------------| x 3
D|-----4--------0---------|
A|-2-----2--0-2-----------|
 E|----------------2----------------------------|

G|-----------------------|
D|---0--------0----------|
A|-2---2--0-2------------|
 E|------------2-----------------------------|

G|---4--------------------| 
D|-----4--------0---------|
A|-2-----2--0-2-----------|
 E|----------------2---------------------------|

G|-----------------------| 
D|-4--4---------4-3------|
A|-----4---0-4-----------|
 E|------------2-----------------------------|

G|-------------------------| 
D|-2--------0--------------|
A|--2---0-2----------------|
 E|------0-3------------------------------------|

G|---4--------------------| x 10
D|-----4--------0---------|
A|-2-----2--0-2-----------|
 E|----------------2---------------------------|

G|----9------------------------------------------|  x 4
D|------9----------------------------------------|
A|-7-----7-------7-10--------------------------|
 E|---------7-10---------------------------------|
G|---4--------------------| x4
D|-----4--------0---------|
A|-2-----2--0-2-----------|
 E|----------------2---------------------------|

G|-----------------------|     Really drag that out
D|-4--4---------4-3------|
A|-----4---0-4-----------|
 E|------------2-----------------------------|

G|-------------------------|    drag this out too
D|-2--------0--------------|
A|--2---0-2----------------|
 E|------0-3------------------------------------|        

G|-------------------------------------------|   x2
D|-------------------------------------------|
A|-2-2-2-2-2-2-2-2-2-2-2-2-------------|
 E|-------------------------------------------|  

G|--------------------------------|  x8
D|---0---------------------------|
A|-2---4-3-0-2-----------------|
 E|-------------------------------|

G|--------------------------------|  x4
D|-2-1-0------------------------|
A|--------4----------------------|
 E|-------------------------------|

G|--------------------------------|  x4
D|---0---------------------------|
A|-2---4-3-0-2-----------------|
 E|-------------------------------|

G|--------------------------------| x2
D|------4-3-2--------------------|
A|--------------------------------|
 E|--2----------------------------|

G|--4-2-0--------------------------------| 
D|-----------4----------------------------|
A|-----------------------------------------|
 E|----------------------------------------|

G|-------------------------------------------| 
D|-2--0-------------------------------------|
A|--------4-3-------------------------------|
 E|-------------------------------------------|

G|---4--------------------| x 4 (might be 3)
D|-----4--------0---------|
A|-2-----2--0-2-----------|
 E|----------------2---------------------------|

G|-----------------------|  
D|---0--------0----------|
A|-2---2--0-2------------|
 E|------------2-----------------------------|

 G|---4--------------------| x 4 (might be 3)
D|-----4--------0---------|
A|-2-----2--0-2-----------|
 E|----------------2---------------------------|

G|-----------------------| 
D|-4--4---------4-3------|
A|-----4---0-4-----------|
 E|------------2-----------------------------|

G|--------------------------|  x10
D|----0----0---------------|
A|-2----2------------------|
 E|--------------------------|
            
Tabs too difficult? Try these video lessons and learn fast.




comments powered by Disqus
↑ Back to top | Tablatures and chords are parodies/interpretations of the original songs. You may use it for private study, scholarship, research or language learning purposes only