>
 >
Money 4

Money 4 Guitar Tabs

Pink Floyd - Money 4 chords, tabs, tablatures, lyrics

Guitar lessons | Add/correct | Request | Top 50 tabs Artists:  A B C D E F G H I J K L M N O P Q R S T U V W X Y Z 0-9

Money 4 Guitar Tabs – Pink Floyd

CD, Sheet music, Poster

Do you like Money 4? Share with your friends now
Bass TabsBass Tabs v2Bass Tabs v3Bass Tabs v4ChordsChords v2Drum TabsTabsTabs v2Tabs v3Tabs v4Tabs v5Tabs v6Tabs v7Tabs v8Ukulele
Pink Floyd

CHORDS:
B5-  x-2-4-4-o-x
F#m- 2-4-4-2-2-2
Em-  0-2-2-0-0-0


 Gtr 1
|--------------------------|----------------------------|
|--------------------------|----------------------------|
|----2---------------------|----4-----------------------|
|-------4------------------|-------5--------------------|
|-2--------2---------2--5b-|-2--------2--------2--x--5b-|
|-------------2--5b--------|-------------2--5-----------|

                               Riff A- - - - - - - - - - - |
|-----------------------------|-----------------------------|
|-----------------------------|-----------------------------|
|----4------------------------|----4------------------------|
|-------4---------------------|-------4---------------------|
|-2--------2--x---------2--5b-|-2--------2--x---------2--5b-|
|----------------2--5b--------|----------------2--5b--------|

 Gtr 2 Plays Riff A 4X
 Gtr 2 (chords, w/ tremolo)
 Gtr 1 (tabbed)
   B5                                      B5
|--------------------|-----------------------|-------------------------|
|-----7--7------7----|----7--7----7----7-----|----7--7----7-----7------|
|-----7--7------7----|----7--7----7----7-----|----7--7----7-----7------|
|-----7--7-----------|----7--7---------7-----|----7--7----------7------|
|--------------------|-----------------------|-------------------------|
|--------------------|-----------------------|-------------------------|

                        %
                        Verse 1,2,3
                        Play Riff A 8X
                        B5                                        B5
|---------------------||--------------------|----------------------|
|----7--7----7----7---||---7--7-----7-------|------7--7-----7------|
|----7--7----7----7---||o--7--7-----7-------|------7--7-----7------|
|----7--7---------7---||o--7--7-----7-------|------7--7-----7------|
|---------------------||--------------------|----------------------|
|---------------------||--------------------|----------------------|

                                             B5
|------------------|-----------------------|-----------------------|
|-7b---7b----------|----7--7----7----7-----|---7--7----7----7------|
|-7b---7b----------|----7--7----7----7-----|---7--7----7----7------|
|------------------|----7--7---------7-----|---7--7---------7------|
|------------------|-----------------------|-----------------------|
|------------------|-----------------------|-----------------------|

                  B5
|-------------------|---------------------|-----------------|
|--7--7---7----7----|---7--7-----7----7---|-7b-----7b-------|
|--7--7---7----7----|---7--7-----7----7---|-7b-----7b-------|
|--7--7--------7----|---7--7----------7---|-----------------|
|-------------------|---------------------|-----------------|
|-------------------|---------------------|-----------------|

                     Gtr 1 and 3 (tabbed)
                     Gtr 2 (chords)                            3rd time
                     F#m                              Em       to CODA
|-------------------|------------------------|----------------------------|
|-7--7----7-----7---|------------------------|----------------------------|
|-7--7----7-----7---|------------------------|----------------------------|
|-7--7----------7---|-4--4--4--------------4-|--3--2----------------------|
|-------------------|----------4--------4----|--------2--------0-0-2-2-5b-|
|-------------------|-------------2--5-------|-----------0--3-------------|


Gtr 1 plays Riff A 2X
Gtr 3 (tabbed)
 B5                   |-1- - - - - - - - -|
|--------------------|---------------------||
|--7--7----7----7----|---7--7----7----7----||
|--7--7----7----7----|---7--7----7----7---o||
|--7--7---------7----|---7--7---------7---o||
|--------------------|---------------------||
|--------------------|---------------------||


                            Sax solo
 |-2- - - - - -             Gtr 3
 B5                         Gtr 1 plays Riff A 8X                 4X
|----10--10\--------------||------------------|-------------------||
|----10--10\---7-----7----||---7--7---7---7---|---7--7---7---7----||
|--------------7-----7----||o--7--7---7---7---|---7--7---7---7---o||
|--------------7-----7----||o--7--7-------7---|---7--7-------7---o||
|-------------------------||------------------|-------------------||
|-------------------------||------------------|-------------------||



|- - - - - - - - - - - - - - - - - - - - - - - - - - -|
|  Rhy Fig 1               Rhy Fig 2                  |
| |-2---2----------------||-7---7-----------------||  |
| |-3---3----------------||-8---8-----------------||  |
| |-4---4----------------||-9---9-----------------||  |
| |----------------------||-9---9-----------------||  |
| |---------2----2----2--||-----------------------||  |
| |----------------------||---------0----0----0---||  |
|                                                     |
|- - - - - - - - - - - - - - - - - - - - - - - - - - -|


    *Em                         4X *B5                      4X
|-||----------------------------||--------------------------||
| ||----------------------------||--------------------------||
| ||o----9---------------------o||----4--------------------o||
| ||o-------9------------------o||-------4-----------------o||
| ||--7--------7---------7--10b-||-2--------2--------2--5b--||
| ||--------------7--10---------||-------------2--5---------||
|   *1st and 3rd times only
|
| ||----------------------------||--------------------------||
| ||-----8--8-----8------8------||----7--7-----7------7-----||
| ||o----9--9-----9------9-----o||----7--7-----7------7----o||
| ||o----9--9-----9------9-----o||----7--7------------7----o||
| ||-----7--7-----7------7------||--------------------------||
|-||----------------------------||--------------------------||



Gtr 1 and 3 (tabbed)
Gtr 2 (chords)
   F#m                        Em
|---------------------------|--------------------------|
|---------------------------|--------------------------|
|---------------------------|--------------------------|
|--4--4--4---------------4--|-3--2---------------------|
|-----------4---------4-----|-------2---------0--2--5b-|
|--------------2--5b--------|----------0--3b-----------|



||---------------------------||
||---------------------------||
||o-4-4-4-4-4-4-4-4-4-4-4-4-o||
||o-4-4-4-4-4-4-4-4-4-4-4-4-o||
||--2-2-2-2-2-2-2-2-2-2-2-2--||
||---------------------------||


   Gtr 3+4 (Reverb and Delay)
|-|--------------~~~~~~|~~~~~~-----------|----------------------10-----|
| |-----~~~~~-10b------|-------r--7--10--|-------~~~~~~~~~-/12------12-|
| |-9b--7--------------|-----------------|-9b---7----------------------|
| |--------------------|-----------------|-----------------------------|
| |--------------------|-----------------|-----------------------------|
| |--------------------|-----------------|-----------------------------|
|
|  Gtr 1
|  Riff B- - - - - - -| Play Riff B, 7X
| |--------------------|
| |--------------------|
| |--------------------|
| |--------------------|
| |-2----5---4---3---2-|
|-|--------------------|
    Pm- - - - - - - - |


|--~~~~~~~~~~~~~--------|-12b--------~~~~~~~-|-----------------|
|-12-------------12--12-|--------12-12-------|-----------------|
|-----------------------|--------------------|-----9b----7--9--|
|-----------------------|--------------------|-----------------|
|-----------------------|--------------------|-----------------|
|-----------------------|--------------------|-----------------|



|--------------------|-7-------------10--12--12b--r--|
|------------------7-|----10--10p12------------------|
|--~~~~~~~~~~-9b-----|-------------------------------|
|-9------------------|-------------------------------|
|--------------------|-------------------------------|
|--------------------|-------------------------------|



|-|---------10------12b-|-----12b--r--10--12-|--~~~~~--------------------|
| |-12--12--------------|--------------------|-12-----10b----------------|
| |---------------------|--------------------|-------------11\9-------7b-|
| |---------------------|--------------------|---------------------------|
| |---------------------|--------------------|---------------------------|
| |---------------------|--------------------|---------------------------|
|
|
| |---------------------|--------------------|---------------------------|
| |------------8--------|-------8------------|------------------8---8----|
| |------------9--------|-------9------------|------------------9---9----|
| |------------9--------|-------9------------|----------9-----------9----|
| |------------7--------|-------7------------|----7----------------------|
|-|---------------------|--------------------|---------------------------|



|-|--------------------------|-------------------|--------------------7-|
| |--------------------------|-------------------|------------------7---|
| |--~~~~~-------------------|-------------------|-7-7--~~~~~---9b------|
| |-9------7-----------------|---------7---9p7---|------9---------------|
| |-----------9\7----5b---~~~|~~~-7/9------------|----------------------|
| |----------------------7---|-------------------|----------------------|
|
|                             Play Riff B, 4X
| |--------------------------|
| |------------------8---8---|
| |------------------9---9---|
| |-----------9----------9---|
| |----7---------------------|
|-|--------------------------|



|----------------10-12-|-12b--------~~~~~~~-14b-|
|-10-10h12-12-12-------|--------12-12-----------|
|----------------------|------------------------|
|----------------------|------------------------|
|----------------------|------------------------|
|----------------------|------------------------|



|-|-------14--12--10---|------------------------|----------------|
| |--------------------|-12-10---------~~~~-10b-|--10--8--7------|
| |--------------------|-------11/9-9/11--------|----------------|
| |--------------------|------------------------|----------------|
| |--------------------|------------------------|----------------|
| |--------------------|------------------------|----------------|
|
|
| |--------------------|------------------------|----------------|
| |--------------------|------------------------|----------------|
| |--------------------|-Play last--------------|----------------|
| |-----4---3-----2--x-|-measure----------------|-9--7-----------|
| |--------------------|------------------------|-------10--9--5-|
|-|-2------------------|------------------------|----------------|
   Pm- - - - - - - - -|


|-|-------------------|---------------------|--------------||
| |-9b--7-------------|---------7--b--------|-----9--b-----||
| |---------11------~~|~~~~~~~--7--b--------|~~~~-9--b-----||
| |------------10--9--|-------------------9-|------------9-||
| |-------------------|---------------------|--------------||
| |-------------------|---------------------|--------------||
|
|                                            Play Riff B, 3X
| |-------------------|---------------------|
| |-------------------|---------------------|
| |-------------------|---------------------|
| |-------------------|---------------------|
| |-7---5---4---3-----|-2----5------4--3--2-|
|-|-------------------|---------------------|
                        Pm- - - - - - - - -|


  Gtr 3
|-7-----------7-|-----------------~~|----10-------|----------------|
|-7----x------7-|----------/12--12--|-12--------7-|----------~~~~~-|
|---------------|-------------------|-----------7-|---------9b-----|
|---------------|-------------------|-------------|-9--------------|
|---------------|-------------------|-------------|----------------|
|---------------|-------------------|-------------|----------------|



|-----------------|--------------|--------------|--7---------------|
|-----------------|--7----7------|--------------|-------------7b---|
|-7--9------~~~~~-|--7----7------|-----------9b-|-------------9b---|
|-------9--9------|--7----7------|-7h9----------|------------------|
|-----------------|--------------|--------------|------------------|
|-----------------|--------------|--------------|------------------|



|--~~~~~~~~~~~--|--------------|------------------------|-------------|
|-7b------------|--------------|------~~~~~~------------|-----~~~~~---|
|-9b------------|------9b-r-p7-|-9b--9b--------r-p0--7b-|--r-b------r-|
|---------------|--------------|------------------------|-------------|
|---------------|--------------|------------------------|-------------|
|---------------|--------------|------------------------|-------------|
                                 PH


|------------------10-|------------10---|-12b--12b-------r--|
|----------x---/12----|--------10-------|-------------------|
|--~~~~~~~------------|-----------------|-------------------|
|-9-------------------|-----------------|-------------------|
|---------------------|-----------------|-------------------|
|---------------------|-----------------|-------------------|



|-12p10-----------|----------------------|-----------------|
|----------10-10--|-10-------~~~~~~~-----|------~~~~~------|
|-----------------|----9/10/11--------9b-|--r--b------r--\-|
|-----------------|----------------------|-----------------|
|-----------------|----------------------|-----------------|
|-----------------|----------------------|-----------------|



|---------------------|------------------|------------------|
|---------------------|------------------|--------7--b------|
|--~~~~~--------------|------------------|--------7--b------|
|-9-----7-------------|------------------|----------------9-|
|----------10----9--5-|-7--5--4--0--3--2-|------------------|
|---------------------|------------------|------------------|


                     (Gtr 4)
|-------------------|-----------------------|-(10)-(12)-(12)b--(12)b-----||
|---------9--b------|-------------(10)-(12)-|----------------------------||
|~~~~~~---9--b------|-----7-/(11)-----------|----------------------------||
|------9---------9--|---------------------9-|----------------7---------9-||
|-------------------|-----------------------|----------------------------||
|-------------------|-----------------------|----------------------------||


   Gtr 4
|-|-10-12--~~~~~~---|---19-22b---r-22-22-|-22----~~~~~-----------|
| |-------12-----\--|--------------------|----22b------22b-\-----|
| |-----------------|--------------------|-----------------------|
| |-----------------|--------------------|-----------------------|
| |-----------------|--------------------|-----------------------|
| |-----------------|--------------------|-----------------------|
|
|  Gtr 3             Riff C- - - - - - -|
| |-----------------|--------------------|-----------------------|
| |-------7---------|-------7-7---x-9\---|--------7-7---x-9\-----|
| |-------7---------|-------7-7---x-9\---|--------7-7---x-9\-----|
| |-------7---------|--------------------|-----------------------|
| |-----------------|--------------------|-----------------------|
|-|-----------------|--------------------|-----------------------|


Gtr 3 (play last meas.)
Gtr 4                  Gtr 3 plays Riff C, 4X
|---------------------|------------------|------------------|
|-------15-17b--15b-r-|--~~~~~~~~-x-17b--|------r--17--15b--|
|--/16----------------|-16---------------|------------------|
|---------------------|------------------|------------------|
|---------------------|------------------|------------------|
|---------------------|------------------|------------------|



|------------------------|------------------10-|
|--~~~~~~~~~-------------|---~~~~~~~~~-/12-----|
|-16-----------9---7---9-|-/11-----------------|
|------------------------|---------------------|
|------------------------|---------------------|
|------------------------|---------------------|


   Gtr 1 plays Rhy Fig 2, 4X
|-|--~~~~~~~~~~---------|-22b--------22-22--|-22---~~~~~~~-----|
| |-12---------------19-|-------------------|----22b-------22b-|
| |---------------------|-------------------|------------------|
| |---------------------|-------------------|------------------|
| |---------------------|-------------------|------------------|
| |---------------------|-------------------|------------------|
|
|  Riff D- - - - - - - |  Play Riff D 3X
| |---------------------|-------------------|
| |------12-12---x--14--|-------------------|
| |------12-12---x--14--|-------------------|
| |------12-12---x--14--|-------------------|
| |---------------------|-------------------|
|-|---------------------|-------------------|
                        Gtr 1 plays Rhy Fig 1, 4X
                        Gtr 3 plays Riff C, 4X
|-------~~~~~----------|-----------------|-----------------|
|--r-22b------------~~~|~~~~~~~-----19b--|-19-----22b-22b--|
|-------------21b--19--|--------21--21b--|-----------------|
|----------------------|-----------------|-----------------|
|----------------------|-----------------|-----------------|
|----------------------|-----------------|-----------------|



|---22----~~~~~~~~-|------22b--r--22--22-|
|-------22b--------|---19----------------|
|------------------|---------------------|
|------------------|---------------------|
|------------------|---------------------|
|------------------|---------------------|



|-|-22-------------------------|--------------------------|
| |-----22b---19--22p19--------|--------------------------|
| |----------------------19~~~-|--------------------------|
| |----------------------------|-21p19---19---~~~~~~~-----|
| |----------------------------|-------------21-------x---|
| |----------------------------|--------------------------|
|
|
| |----------------------------|--------------------------|
| |-----------14-14----16\-----|---------14--14-----------|
| |-----------14-14----16\-----|---------14--14------16---|
| |-----------14-14----16\-----|---------14--14-----------|
| |----------------------------|--------------------------|
|-|----------------------------|--------------------------|


                                           Play Riff A, 2X
    B5                                     B5
|-|---------------~~~~~-----|------------|
| |-16b----10----6-----7----|------------|
| |-------------------------|-9--7--6--5-|
| |-------------------------|------------|
| |-------------------------|------------|
| |-------------------------|------------|
|
|
| |-------------------------|------------|------------------|
| |-------------------------|------------|----7-7---7---7---|
| |-------------------------|------------|----7-7---7---7---|
| |---9----7----------------|------------|----7-7---7---7---|
| |-------------10-----9--6-|-7--5--4--3-|-2----------------|
|-|-------------------------|------------|------------------|




 Coda
 Riff D          Riff E
 *B5            3X               4X
||--------------||---------------||---7--7--------|
||-----7-7------||-----7-7---9---||---9--9-----7--| Play Riff D 5X
||o----7-7-----o||o----7-7---9--o||---7--7-----7--|
||o----7-7-----o||o----7-7---9--o||---------------|
||--------------||---------------||---------------|
||--7-------10b-||--7------------||---------------|
 *1st time only



|--------------|-----------------|---~~~~---------|
|--------------|----------10-10b-|-10b------------|
|------9b---7--|-~~~~~~----------|----------9b--7-|
|--------------|-9---------------|----------------|
|--------------|-----------------|----------------|
|-7------------|-----------------|----------------|



|--------------12b-|~~~~~----------|-----------------|-------------|
|----------10------|------12b--10--|-12~~~~~---------|-------------|
|--~~~~------------|---------------|-----------9b--7-|--~~~~~~-----|
|-9----------------|---------------|-----------------|-9--------9--|
|------------------|---------------|-----------------|-------------|
|------------------|---------------|-----------------|-------------|



|---------------7-|----------------------~~~-|------------|
|-----------------|-10-10b--10b-r-10b-10b----|-----10-10--|
|-7---------9b----|--------------------------|------------|
|-7---~~~~--------|--------------------------|------------|
|----9------------|--------------------------|------------|
|-----------------|--------------------------|------------|



|--------------|----------------------------||
|-10--~~~~~----|----------------------------||
|----9b--------|-9b-9b-9b-9b-9b----9b-9b----||
|--------------|----------------------------||
|--------------|----------------------------||
|--------------|----------------------------||





Comments


Popular Pink Floyd tabs & chords
Julia Dream Bass Tabs
See Emily Play Bass Tabs
Take It Back Bass Tabs
Interstellar Overdrive Chords
When The Tigers Broke Free Chords
A Pillow Of Winds Tabs
Mother Tabs
One Slip Tabs
Whots Uh The Deal Tabs
Wish You Were Here 1 Tabs


Song lyrics



↑ Back to top | Tablatures and chords are parodies/interpretations of the original songs. You may use it for private study, scholarship, research or language learning purposes only
© 2014 AZChords.com Contact us | Privacy policy | DMCA | Add/correct tabs | Request tabs | Top 50 tabs