» » »

Money Tabs (ver.4)

Artists:  A B C D E F G H I J K L M N O P Q R S T U V W X Y Z # 

Money Tabs (ver.4)

Pink Floyd
Rating:
0/5 (0 votes)

Hard to play? Try these video lessons and learn fast.
                This is a COOOOL song. Too many frikkin guitar noises in the background though. I
play lead guitar. This sounds right at least on guitar, usually songs like this are
an octave higher on bass.

G----4-----------------|
D------4------------0--|
A--2-----2-----0--2----|
E-----------2----------|

G------------------|----------------------|
D--4-4-4-----------|--4-3-2------------0--|
A--------4---0--4--|--------2------0-2----|
E----------2-------|----------0--3--------|

G--------------------|
D--------------------|
A--2-5-4-3-2-5-4-3-2-|
E--------------------|

G-------------------|
D--9-7-5-4----------|
A----------7-5-4-3--|
E-------------------|

Those are the riffs.  Sorry I didn't put how many times to play them.
But I'm not sorry that I didn't put lyrics.
The thingy that comes up right before you submit tabs clearly states that you should
not write lyrics onto your tabs.  You are all idiots for disobeying this.
Well dillymo.

 
waddle pamphlet table native episode sister summit butt poot dklsajf jei
            
Hard to play? Try these video lessons and learn fast. | Correct




comments powered by Disqus
↑ Back to top | Tablatures and chords are parodies/interpretations of the original songs. You may use it for private study, scholarship, research or language learning purposes only