» » »

Money Bass tabs (ver.4)

Artists:  A B C D E F G H I J K L M N O P Q R S T U V W X Y Z # 

Money Bass tabs (ver.4)

Pink Floyd
Rating:
0/5 (0 votes)

Hard to play? Try these video lessons and learn fast.
                I learned this song from DEREKTESL's tab and some pieces don't seem right to me when 
played with the song so i'm gonna tab out what seems right to my ear.

Standard Tuning (EADG)


Intro and Main riff
G|----4--------------|
D|------4----------0-|
A|--2-----2----0-2---|
E|-----------2-------|


G|----------------------------------|
D|--4-4-4---------4-3-2----------0--|
A|--------4----4-------------0-2----|
E|----------2------------0-3--------|


G|----4--------------|
D|------4----------0-|
A|--2-----2----0-2---|
E|-----------2-------|



G|----------------------------------|
D|--4-4-4---------4-3-2----------0--|
A|--------4----4-------------0-2----|
E|----------2------------0-3--------|


This is where the wind instrument comes in.
G|----4--------------------9-----------------|
D|------4----------0---------9---------------|
A|--2-----2----0-2------7------7-------7-10--|
E|-----------2--------------------7-10-------|



G|-----------------------------------------|
D|--4-4-4---------4-3-2----------0---------|
A|--------4----4-------------0-2----22222--|
E|----------2------------0-3---------------|


G|-----------------------------------------------------4-2--------------|
D|--------------2-5-4-3--4x--------------------------------5-4-2--------|
A|--2-5-4-3--8x--------------2-5-4-3--4x-------------------------5-4-3--|
E|----------------------------------------2-5-4-3--2x-------------------|


 This part just adds another note and rest after each note
G|--------------------------------------------------------4-2--------------|
D|---------------22-5-4-3--4x---------------------------------5-4-2--------|
A|--22-5-4-3--8x---------------22-5-4-3--4x-------------------------5-4-3--|
E|------------------------------------------22-5-4-3--2x-------------------|


G|-----------------------------------------------------4-2--------------|
D|--------------2-5-4-3--4x--------------------------------5-4-2--------|
A|--2-5-4-3--8x--------------2-5-4-3--4x-------------------------5-4-3--|
E|----------------------------------------2-5-4-3--2x-------------------|


G|----4--------------|
D|------4----------0-|
A|--2-----2----0-2---|
E|-----------2-------|


G|----------------------------------|
D|--4-4-4---------4-3-2----------0--|
A|--------4----4-------------0-2----|
E|----------2------------0-3--------|


  Outro do til end of song
G|-----------------------------------|
D|-----------------------------------|
A|--2-5--2-55--2-5--2--55--2-5--2-55-|
E|-----------------------------------|

brandonbushnell22
            
Hard to play? Try these video lessons and learn fast. | Correct




comments powered by Disqus
↑ Back to top | Tablatures and chords are parodies/interpretations of the original songs. You may use it for private study, scholarship, research or language learning purposes only