» » »

Matilda Mother Bass tabs (ver.1)

Artists:  A B C D E F G H I J K L M N O P Q R S T U V W X Y Z # 

Matilda Mother Bass tabs (ver.1)

Pink Floyd
Rating:
0/5 (0 votes)

Hard to play? Try these video lessons and learn fast.
                                               Matilda Mother
                                 Pink Floyd
                       The Piper At The Gates Of Dawn

            
G||-------------------|--16----------------|--16----------------|
D||-------------------|--------------------|--------------------|
A||-------------------|--------------------|--------------------|
E||-------------------|--------------------|--------------------|
       
--16----------------|--------------------|--16--------14--------|
---0----------------|--16----------------|----------------------|
--------------------|--------------------|----------------------|
--------------------|--------------------|----------------------|
         
--12--------11--------|--16--------14--------|--12--------11--------|
----------------------|----------------------|----------------------|
----------------------|----------------------|----------------------|
----------------------|----------------------|----------------------|
  
--16--------14--------|--12--------11--------|-----11--8--------9--6-----|
----------------------|----------------------|--9---------9--7--------7--|
----------------------|----------------------|---------------------------|
----------------------|----------------------|---------------------------|

-----7--4--------3--6-----|-----7--4-------2-------|----9--6------6-----7--|
--5--------5--4--------4--|--5----------0-----4----|--7--------7-----7-----|
--------------------------|------------------------|-----------------------|
--------------------------|------------------------|-----------------------|

-----7--4-------2-------|--8-9--9--9--9--9--9--9--9--|
--5----------0-----4----|----------------------------|
------------------------|----------------------------|
------------------------|----------------------------|
   
--9--9--9--9--9--9--9--9--|-----1--2--4--2--1--------|
--------------------------|--4-----------------4--2--|
--------------------------|--------------------------|
--------------------------|--------------------------|

-----1--2--4--2--1--------|--------------------------|
--4-----------------4--2--|--------------------------|
--------------------------|--2-----2-----2-----2-----|
--------------------------|--------------------------|

--------------------------|---1--2--4--2--1------|-----11----10----9----7--|
--------------------------|--4-------------4--2--|--4--------------L----0--|
--2-----2-----2-----2-----|----------------------|-------------------------|
--------------------------|----------------------|-------------------------|
      
-----------------------|-------------------|--16--------14--------|
-----------------4--5--|--L----------------|----------------------|
--7----7------7--------|-------------------|----------------------|
-----------------------|-------------------|----------------------|
        
--12--------11--------|--16--------14--------|--12--------11--------|
----------------------|----------------------|----------------------|
----------------------|----------------------|----------------------|
----------------------|----------------------|----------------------|
  
--16--------14--------|--12--------11--------|-----11--8--------9--6-----|
----------------------|----------------------|--9---------9--7--------7--|
----------------------|----------------------|---------------------------|
----------------------|----------------------|---------------------------|

-----7--4--------3--6-----|-----7--4-------2------|----9--6-------6-----7--|
--5--------5--4--------4--|--5----------0-----4---|--7---------7-----7-----|
--------------------------|-----------------------|------------------------|
--------------------------|-----------------------|------------------------|
   
-----7--4-------2-------|------------------------|------------------------|
--5---------0-----4-----|-2--2--2--2--2--2--2--2-|-2--2--2--2--2--2--2--2-|
------------------------|------------------------|------------------------|
------------------------|------------------------|------------------------|
              
--2--------0--------|-------------------|-------------------|
--------------------|--2----------------|--L----------------|
--------------------|-------------------|-------------------|
--------------------|-------------------|-------------------|
      
-------11--L---11------------|-------11--L---11------------|
---------------------11------|---------------------11------|
--9---------------9----------|--9---------------9----------|
-----------------------------|-----------------------------|
    
-------11--L---11------------|-------11--L---11------------|
---------------------11------|---------------------11------|
--9---------------9----------|--9---------------9----------|
-----------------------------|-----------------------------|
      
-------11--L---11------------|-------11--L---11------------|
---------------------11------|---------------------11------|
--9---------------9----------|--9---------------9----------|
-----------------------------|-----------------------------|
    
-------11--L---11------------|-------11--L---11------------|
---------------------11------|---------------------11------|
--9---------------9----------|--9---------------9----------|
-----------------------------|-----------------------------|
    
-------11--L---11------------|-------11--L---11------------|
---------------------11------|---------------------11------|
--9---------------9----------|--9---------------9----------|
-----------------------------|-----------------------------|
   
-------11--L---11------------|-------11--L---11------------|
---------------------11------|---------------------11------|
--9---------------9----------|--9---------------9----------|
-----------------------------|-----------------------------|
   
-----1--2--4--2--1--------|-----1--2--4--2--1--------|
--4-----------------4--2--|--4-----------------4--2--|
--------------------------|--------------------------|
--------------------------|--------------------------|
   
-----11--8--------9--6-----|-----7--4--------3--6--3--|
--9---------9--7--------7--|--5--------5--4-----------|
---------------------------|--------------------------|
---------------------------|--------------------------|
   
-----11--8--------9--6-----|-----7--4--------3--6-----|
--9---------9--7--------7--|--5--------5--4--------4--|
---------------------------|--------------------------|
---------------------------|--------------------------|
  
-----11--8--------9--6-----|-----7--4--------3--6--3--|
--9---------9--7--------7--|--5--------5--4-----------|
---------------------------|--------------------------|
---------------------------|--------------------------|

-----11--8--------9--6-----|-----7--4------3--6-----|-----7--4-----2-------|
--9---------9--7--------7--|--5------5--4--------4--|--5--------0-----4----|
---------------------------|------------------------|----------------------|
---------------------------|------------------------|----------------------|

----9--6-------6------7--|-----7--4-------2-------|-8-9--9-9--9-9--9-9-9---|
--7----------7-----7-----|--5----------0-----4----|------------------------|
-------------------------|------------------------|------------------------|
-------------------------|------------------------|------------------------|
            
--9--9--9--9--9--9--9--9--|--------------------|-------------------|
--------------------------|--7--------5--------|-------------------|
--------------------------|--------------------|--7----------------|
--------------------------|--------------------|-------------------|

-------------------|----------------|------------------|-------------------|
-------------------|----------------|------------------|-------------------|
--7----------------|--7-------------|--7---------------|--7----------------|
-------------------|----------------|------------------|-------------------|

-------------------|-------------------|---------------|-------------------|
-------------------|-------------------|---------------|-------------------|
--7----------------|--7----------------|--7------------|--7----------------|
-------------------|-------------------|---------------|-------------------|

-------------------|-------------------|---------------|-------------------|
-------------------|-------------------|---------------|-------------------|
--7----------------|--7----------------|--7------------|--7----------------|
-------------------|-------------------|---------------|-------------------|
               
-------------------|-------------------|-------------------|
-------------------|-------------------|-------------------|
--7----------------|--7----------------|--7----------------|
-------------------|-------------------|-------------------|
               
-------------------||
-------------------||
--7----------------||
-------------------||



Tablature Legend
----------------
L - tied note
x - dead note
g - grace note
(n) - ghost note
> - accentuded note
NH - natural harmonic
AH - artificial harmonic
TH - tapped harmonic
SH - semi harmonic
PH - pitch harmonic
h - hammer on
p - pull off
b - bend
br - bendRelease
pb - preBend
pbr - preBendRelease
brb - bendReleaseBend
\n/ - tremolo bar dip
\n - tremolo bar dive
-/n - tremolo bar Release up
/n\ - tremolo bar inverted dip
/n - tremolo bar return
-\n - tremolo bar Release down
S - shift slide
s - legato slide
/ -  slide into from below or out of upwards
\ -  slide into from above or out of downwards
~ - vibrato
W - wide vibrato
tr - trill
TP - tremolo picking
T - tapping
S - slap
P - pop
< - fade in
^ - brush up
v - brush down
            
Hard to play? Try these video lessons and learn fast. | Correct




comments powered by Disqus
↑ Back to top | Tablatures and chords are parodies/interpretations of the original songs. You may use it for private study, scholarship, research or language learning purposes only