» » »

Pink Floyd, Matilda Mother Tabs (ver.1)

Artists:  A B C D E F G H I J K L M N O P Q R S T U V W X Y Z # 

Matilda Mother Tabs (ver.1)

Pink Floyd Tabs
Rating:
0/5 (0 votes)
Matilda Mother lessons Tabs too difficult? Try these video lessons and learn fast
                One of the best song of Piper.... another syd classic.

Standard tuning


Keyboard inro


Verse 1
e---0--------0--------0--------0-----|
B-----0--------0--------0--------0---|
G-4-----4--2-----2--0-----0----------|   X4
D----------------------------4-----4-|
A------------------------------------|
E------------------------------------|

Chorus

  Oh mother, tell me....
e-3-3-----2-2-----0-0-------3-3-----2-2-----0--|
B-3---3---3---3---2-----2---3---3---3---3---0--|
G-0-----0-2-----2-2---2-----0-----0-2-----2-1--|
D-0-------0-------2---------0-------0-------2--|
A-2---------------0---------2---------------2--|
E-3-------------------------3---------------0--|

e-----------------------------------------------------------|
B--------------------------------------------------4--4---4-|
G--------------------------------------------------4--4---4-|
D--------------------------------------------------4--4---4-|
A-------0--2--0-----------------0--2--0------------2--2-----|
E-2--4-----------4--2--0--2--4-----------4--2--0------------|

e-----------------------------------------------------------|
B-----------------------------------------------------------|
G-----------------------------------------------------------|
D-----------------------------------------------------------|
A-------0--2--0-----------------0--2--0---------------------|
E-2--4-----------4--2--0--2--4-----------4--2--0------------|

Verse 2

e---0--------0--------0--------0-----|
B-----0--------0--------0--------0---|
G-4-----4--2-----2--0-----0----------|   X4
D----------------------------4-----4-|
A------------------------------------|
E------------------------------------|


Chorus

e-3-3-----2-2-----0-0-------3-3-----2-2-----0----3---2---0--|
B-3---3---3---3---2-----2---3---3---3---3---0----3---3---0--|
G-0-----0-2-----2-2---2-----0-----0-2-----2-1----0---2---1--|
D-0-------0-------2---------0-------0-------2----0---0---2--|
A-2---------------0---------2---------------2----2---0---2--|
E-3-------------------------3---------------0----3---2---0--|

Middle Section

e-------------------|
B-------------------|
G-------------  x16-|
D----4--------------|
A----------4~~------|
E--2----2-----------|

Then

e-----------------------------------------------------------|
B-----------------------------------------------------------|
G-----------------------------------------------------------|
D-----------------------------------------------------------|
A-------0--2--0-----------------0--2--0---------------------|
E-2--4-----------4--2--0--2--4-----------4--2--0------------|

Verse 3

e----0--7-7-7-7----0--5-5-5-5----0--3-3-3-3----0--2-2-2-2-|
B----0--0-0-0-0----0--0-0-0-0----0--0-0-0-0----0--0-0-0-0-|
G-/4-4--4-4-4-4--2-2--2-2-2-2--0-0--0-0-0-0----x--x-x-x-x-|  X4
D--------------------------------------------4-4--4-4-4-4-|
A---------------------------------------------------------|
E---------------------------------------------------------|

Chorus

e-3-3-----2-2-----0-0-------3-3-----2-2-----0----3---2---0--|
B-3---3---3---3---2-----2---3---3---3---3---0----3---3---0--|
G-0-----0-2-----2-2---2-----0-----0-2-----2-1----0---2---1--|
D-0-------0-------2---------0-------0-------2----0---0---2--|
A-2---------------0---------2---------------2----2---0---2--|
E-3-------------------------3---------------0----3---2---0--|


Outro

e---------------------------------------|
B---------------------------------------|
G---------------------------------------|
D---------------------------------------|
A-------5/7-5--2----------5/7-5--2------| Repeat and fade.
E-0--4-----------4--0--4------------4---|
            

comments powered by Disqus
↑ Back to top | Pink Floyd Tabs for Matilda Mother. Lyrics for acoustic guitar and electric guitar. Tablatures and chords are parodies/interpretations of the original songs. You may use it for private study, scholarship, research or language learning purposes only