» » »

Marooned Bass tabs (ver.2)

Artists:  A B C D E F G H I J K L M N O P Q R S T U V W X Y Z # 

Marooned Bass tabs (ver.2)

Pink Floyd
Rating:
0/5 (0 votes)

Hard to play? Try these video lessons and learn fast.
                -------------------------------------------------------------------------------
			     Marooned - Pink Floyd
-------------------------------------------------------------------------------


Tuning: standard BEADG

Intro (bass starts playing at 0:26):
G|---------------------------------------------------------------------------|
D|---------------------------------------------------------------------------|
A|---------------------------------------------------------------------------|
E|-7--------------------------------7--------------------------------5----7--|
B|------------8----------5---------------------8----------5------------------|

G|---------------------------------------------------------------------------|
D|---------------------------------------------------------------------------|
A|---------------------------------------------------------------------------|
E|------------5------------------------------7------7---5--------------------|
B|-----------------8------8---7---5------7------------------8------8---7---5-|

G|---------------------------------------------------------------------------|
D|---------------------------------------------------------------------------|
A|---------------------------------------------------------------------------|
E|---------------------------------------------------------------------------|
B|------------7--0------0--0------0------0--0---------8------8--8------------|

G|---------------------------------------------------------------------------|
D|---------------------------------------------------------------------------|
A|---------------------------------------------------------------------------|
E|---------------------------------------------------------------------------|
B|-8------8--8---7---5------5--5------5------5--5---3---0------0---0---------|

G|---------------------------------------------------------------------------|
D|---------------------------------------------------------------------------|
A|---------------------------------------------------------------------------|
E|---------------5-----------------------------------------------------------|
B|-0------0--0-------8------8--8------8------8--8---7---5------5---5---------|

G|---------------------------------------------------|
D|---------------------------------------------------|
A|---------------------------------------------------|
E|---------------5---7------7--7------7------7--7----|
B|-5------5--5---------------------------------------|

Actual song (2:30- ):
G|---------------------------------------------------------------------------|
D|---------------------------------------------------------------------------|
A|---------------------------------------------------------------------------|
E|-7------7--7------7------7---5---------------------------------------------|
B|---------------------------------8------8--8------5-7-8------8--7--5-------|

G|---------------------------------------------------------------------------|
D|---------------------------------------------------------------------------|
A|---------------------------------------------------------------------------|
E|------------------------------5---7------7--7------7------7--7--------5-7--|
B|------5--5------5------5--5-----------------------------------------7------|

G|---------------------------------------------------------------------------|
D|---------------------------------------------------------------------------|
A|---------------------------------------------------------------------------|
E|------7--7------7------7h9p7---5-------------------------------------------|
B|-----------------------------------8------8--8------8------8---7---5-------|

G|---------------------------------------------------------------------------|
D|---------------------------------------------------------------------------|
A|---------------------------------------------------------------5--7--------|
E|-----------------------------7------7--7-------5-7---7------5--------------|
B|-5--5------5------5--5---7-------------------7-----------7-----------------|

G|---------------------------------------------------------------------------|
D|---------------------------------------------------------------------------|
A|---------------------------------------------------------------------------|
E|-7------7------5---7------7--7---5---------------------------------5-------|
B|-----------7-------------------------8------8--8------5-7-8------8---8-----|

G|---------------------------------------------------------------------------|
D|---------------------------------------------------------------------------|
A|-----------------------------------------------------------------------5---|
E|------------------------7-------------------5--7------7--7---7------5-----5|
B|-7---5------5--5------5---5-----5--5-----7-----------------------7---------|

G|---------------------------------------------------------------------------|
D|---------------------------------------------------------------------------|
A|---------------------------------------------------------------------------|
E|-7------7------5---7------7-9-7---5----------------------------------------|
B|-----------7--------------------------8------8--8------5-7-8------8--8---7-|

G|---------------------------------------------------------------------------|
D|---------------------------------------------------------------------------|
A|---------------------------------------------------------------------------|
E|-----------------------------------5--7------7--7---7---5------5--5--7--5--|
B|-5------5--5------5------5--5---7------------------------------------------|

G|---------------------------------------------------------------------------|
D|---------------------------------------------------------------------------|
A|------------------------------------------------------7--------------------|
E|----------------------------5---------------------------7------------------|
B|-8------8--8------5-7-8---8---8---7---5------5--5---------5------5---7---8-|

G|---------------------------------------------------------------------------|
D|---------------------------------------------------------------------------|
A|--------------------------------------------------9------------------------|
E|-----------------------------5----------------------9----------------9-----|
B|-----8--8------8------8--8-------7------7--7----------7---7---7--10-----10-|

G|---------------------------------------------------------------------------|
D|---------------------------------------------------------------------------|
A|---------------------------------------------------------------------------|
E|-7------7------5---7------7--7---5---------------------------------5-------|
B|-----------7-------------------------8------8--8------5-7-8------8---8---7-|

G|---------------------------------------------------------------------------|
D|---------------------------------------------------------------------------|
A|---------------------------------------------------------------------------|
E|--------------------------------------5--7------7--7---7---8---------------|
B|--5------5--5------5------5--5--7--8---------------------------------------|

===============================================================================
Notes: 

If You have problems with this tab, write Me a mail what's wrong with it
instead of giving it a bad rating! It'd be better for everyone! Thx!


| /  slide up
| \  slide down
| h  hammer-on
| p  pull-off
| ~  vibrato
| +  harmonic
| x  Mute note
===============================================================================
            
Hard to play? Try these video lessons and learn fast. | Correct




comments powered by Disqus
↑ Back to top | Tablatures and chords are parodies/interpretations of the original songs. You may use it for private study, scholarship, research or language learning purposes only