» » »

Pink Floyd, Is There Anybody Out There? Tabs (ver.5)

Artists:  A B C D E F G H I J K L M N O P Q R S T U V W X Y Z # 

Is There Anybody Out There? Tabs (ver.5)

Pink Floyd Tabs
Rating:
0/5 (0 votes)
Is There Anybody Out There? lessons Tabs too difficult? Try these video lessons and learn fast
                "(3)


                      IS THERE ANYBODY OUT THERE?   
                              Pink Floyd
                       From the Album "The Wall".
             

     *** This my own comprehension of the tabs for this tune. ***
     ***     However, I know that it is quite accurate.       ***


           

               Am
           E-|-------||
           B-|-------||
           G-|----2--||   x14   (Yes Fourteen! Strange Number, I know)
           D-|-------||
           A-|-0-----||
           E-|-------||

     Am                Am/F             Am/F#              Am/F
E-|-------0---------|-------0---------|-------0---------|-------0---------|
B-|-----1---1-------|-----1---1-------|-----1---1-------|-----1---1-------|
G-|---2-------2---2-|---2-------2---2-|---2-------2---2-|---2-------2---2-|
D-|-2-----------2---|-3-----------3---|-4-----------4---|-3-----------3---|
A-|-----------------|-----------------|-----------------|-----------------|
E-|-----------------|-----------------|-----------------|-----------------|

    Am       Am/D      Am/C    Am/B      Am
E-|-------0-------0-|-------0-------0-|---------0-------|-----------------|
B-|-----1-------1---|-----1-------1---|-------1---1-----|-------1---------|
G-|---2-------2-----|---2-------2-----|-----2-------2---|-----2---2-------|
D-|-2-------0-------|-----------------|---2-----------2-|---2-------2---2-|
A-|-----------------|-3-------2-------|-0---------------|-0-----------0---|
E-|-----------------|-----------------|-----------------|-----------------|


E-|---------0-------|-----------------|
B-|-------1---1-----|-------1---------|
G-|-----2-------2---|-----2---2-------|
D-|---2-----------2-|---2-------2---2-|
A-|-0---------------|-0-----------0---|
E-|-----------------|-----------------|

    Am                Am/F              Am/F#             Am/F
E-|-------0---------|-------0---------|-------0---------|-------0---------|
B-|-----1---1-------|-----1---1-------|-----1---1-------|-----1---1-------|
G-|---2-------2---2-|---2-------2---2-|---2-------2---2-|---2-------2---2-|
D-|-2-----------2---|-3-----------3---|-4-----------4---|-3-----------3---|
A-|-----------------|-----------------|-----------------|-----------------|
E-|-----------------|-----------------|-----------------|-----------------|

    F      Am/D                         Am
E-|---------------0-|-------0---------|---------0-------|
B-|-----1-------1---|-----1---1-------|-------1---1-----|
G-|---2-------2-----|---2-------2-----|-----2-------2---|
D-|-3-----2-0-------|-0---------------|---2-----------2-|
A-|-----------------|-------------3-2-|-0---------------|
E-|-----------------|-----------------|-----------------|

E-|-----------------|---------0-------|---------0-------|
B-|-------1---------|-------1---1-----|-------1---------|
G-|-----2---2-------|-----2-------2---|-----2-----------|
D-|---2-------2---2-|---2-----------2-|---2-------------|
A-|-0-----------0---|-0---------------|-0---------------|
E-|-----------------|-----------------|-----------------|

    C                 G/B               Am              Legato Slide
E-|---------0-------|-----------0-----|---------0-------|----------------|
B-|-------1---1-----|-------1h3---3-1-|-------0---0-----|-5--3/1-1/0-0---|
G-|-----0-------0---|-----0-----------|-2---2-------2/5-|--4-4/2-2/0-0-0-|
D-|-2-2-----------2-|---0-------------|-2-2-------------|----------------|
A-|-3---------------|-2---------------|-0---------------|----------------|
E-|-----------------|-----------------|-----------------|----------------|

    C                  G/B               Am               Let Ring Out
E-|---------0-------|-----------0-----|---------0-------|----8~~----7~~--|
B-|-------1---1-----|-------1h3---3-1-|-------0---0-----|----------------|
G-|-----0-------0---|-----0-----------|-----2-------0  -|-9------7-------|
D-|---2-----------2-|---0-------------|---2-------------|----------------|
A-|-3---------------|-2---------------|-0---------------|----------------|
E-|-----------------|-----------------|-----------------|----------------|

    Am                 Am/F              Am/F#             Am/F       *
E-|-------0---------|-------0---------|-------0---------|-------0---------|
B-|-----1---1-------|-----1---1-------|-----1---1-------|-----1---1-------|
G-|---2-------2---2-|---2-------2---2-|---2-------2---2-|---2-------2---2-|
D-|-2-----------2---|-3-----------3---|-4-----------4---|-3-----------3---|
A-|-----------------|-----------------|-----------------|-----------------|
E-|-----------------|-----------------|-----------------|-----------------|
                                                                 poco ritard.
                                                                   rit.


                                                                     *
    Am       Am/D      Am/C     Am/B    Am         Let Notes Ring    Am            
E-|-------0-------0-|-------0-------0-|--------------5--|-7---8------12---||
B-|-----1-------1---|-----1-------1---|--------1 /5-----|------------10---||
G-|---2-------2-----|---2-------2-----|-----2-----------|------------9----||
D-|-2-------0-------|-----------------|---2-------------|------------10---||
A-|-----------------|-3-------2-------|-0---------------|------------0----||
E-|-----------------|-----------------|-----------------|-----------------||
                                      | ritardando poco a poco.      Rake


    Tabs by John Ware.

    Distribute Freely. They are the most accurate I've found so far.

    };-#)>
"            

comments powered by Disqus
↑ Back to top | Pink Floyd Tabs for Is There Anybody Out There?. Lyrics for acoustic guitar and electric guitar. Tablatures and chords are parodies/interpretations of the original songs. You may use it for private study, scholarship, research or language learning purposes only