» » »

Pink Floyd, Goodbye Cruel World Bass tabs (ver.4)

Artists:  A B C D E F G H I J K L M N O P Q R S T U V W X Y Z # 

Goodbye Cruel World Bass tabs (ver.4)

Pink Floyd Tabs
Rating:
0/5 (0 votes)
Hard to play? Try these video lessons and learn fast.
                Intro:
|-----7-------7----------|
|-0-------0--------------|
|------------------------|
|------------------------|

Verse:
|-----7------------7------------0--------------0------------7---------------|
|-0-----------0----------------------------------------0------------------7-|
|--------------------------------------------------------------------0------|
|--------------------------3-------------3----------------------------------|
Goodbye cruel world    I'm leaving you today        Goodbye,      Goodbye,


|-----------7--|
|------0-------|
|--------------|
|--------------|
  Goodbye

(interlude)
|-----7-------7----------|
|-0-------0--------------|
|------------------------|2X
|------------------------|

|-----7------------7------------0--------------0------------7---------------|
|-0-----------0----------------------------------------0------------------7-|
|--------------------------------------------------------------------0------|
|--------------------------3-------------3----------------------------------|

|-----------7--|
|------0-------|
|--------------|
|--------------|

|-----7-------7----------|
|-0-------0--------------|
|------------------------| 2X
|------------------------|

End
|--------|
|------0-|
|--------|
|--------|
            

comments powered by Disqus
↑ Back to top | Pink Floyd Bass for Goodbye Cruel World. Lyrics for acoustic guitar and electric guitar. Tablatures and chords are parodies/interpretations of the original songs. You may use it for private study, scholarship, research or language learning purposes only