» » »

Pink Floyd, Fearless Tabs (ver.2)

Artists:  A B C D E F G H I J K L M N O P Q R S T U V W X Y Z # 

Fearless Tabs (ver.2)

Pink Floyd Tabs
Rating:
0/5 (0 votes)
Fearless lessons Tabs too difficult? Try these video lessons and learn fast
                This is a fantastic song by Floyd
Enjoy…

Notes:Theres one backround guitar that plays harmonics and little riffs
which i didnt tab out..but its basically a glass slide around the 12th 
sliding and doing harmonics and what not..

Part A (listen to song for exact strumming and keep strumming through
hammer pull offs

--0--0--0--0--0---------0--0--0--0--0--------
--0--0--0--0--0h1p0-----0--0--0--0--0--------
--0--0--0--0--0---------0--0--0--0--0h2p0----
--0--0--0--0--0---------0--0--0--0--0--------
---------------------------------------------
---------------------------------------------

0--0--0--0--0---------0--0--0--0--0--0--0--0--0-
0--0--0--0--0---------0--0--0--0--0--0--0--0--0-
0--0--0--0--0h2p0-----0--0--0--0--0--0--0--0--0-
0--0--0--0--0---------0--0--0--0--2--0--0--0--0-
----------------------------------2-------------
------------------------------------------------

Part A1
--0--0--0--0--0---------0--0--0--0--0---------0--0--0--0--0--------
--0--0--0--0--0h1p0-----0--0--0--0--0---------0--0--0--0--0--------
--0--0--0--0--0---------0--0--0--0--0h2p0-----0--0--0--0--0--------
--0--0--0--0--0---------0--0--0--0--0---------0--0--0--0--0h2p0----

Part B
-----------------------------------------------------
-----------------------------------------------------
--4--4---5--5--7--7--9-9--11-11--12--12---/----------
--0--0---0--0--0--0--0-0---0--0---0---0--/-----------
--4------5-----7-----9----11-----12-----/------------
-----------------------------------------------------
                  Slide all the way down board^
Part C                               Part D

---5---0---3---3-------|-|---2--2-2-2-2-2-2-/--7-7-7-7-7-7-7--
---5---0---3---3-------|-|---2--2-2-2-2-2-2-/--7-7-7-7-7-7-7--
---5---0---3---3-------|-|---2--2-2-2-2-2-2-/--7-7-7-7-7-7-7--
-----------------------|-|------------------------------------
-----------------------|-|------------------------------------
-----------------------|-|------------------------------------
                                          ^Strum



Part E

--0--------0--0--0--0----0--0--0--0--0---0---
--0--------0--0--0--1----1--1--1--1--1---0---
--0--------0--0--0--0----0--0--0--0--0---0---
--0--------0--0--0--2----2--2--2--2--2---0--- x2
--0--------0--0--0--0----0--0--0--0--0---0---
--0--------0--0--0--0----0--0--0--0--0---0---

--0--------0--0--0--0----0--0--0--0--0--0--0--0--0--0--0---
--0--------0--0--0--1----1--1--1--1--1--1--1--1--1--1--0---
--0--------0--0--0--0----0--0--0--0--0--2--2--2--2--2--0---
--0--------0--0--0--2----2--2--2--2--2--0--0--0--0--0--0---
--0--------0--0--0--0----0--0--0--0--0--0--0--0--0--0--0---
--0--------0--0--0--0----0--0--0--0--0--0--0--0--0--0--0---

yep.

Song Sequence:                                                 
Part A (x2)
Part B
Part A1
Part B
Part A1
Part B
Part A1
Part C
Part A1
Part C
Part A1
Part A
Part C
Part A
Part C
Part A
Part C
Part A
Part C
Part D
Part E 
Part A1
Part B
Part A1
Part B
Part A1
Part B
Part A1
Part B
Part A (x3)
Part C (x2)
Part A
Part C
Part A
Part C
Part A
Part C
Part A
Part C
Part D
Part E
Part A1
Part B
^Do Parts A1 &B till fade out and your done!!
---Numb
            

comments powered by Disqus
↑ Back to top | Pink Floyd Tabs for Fearless. Lyrics for acoustic guitar and electric guitar. Tablatures and chords are parodies/interpretations of the original songs. You may use it for private study, scholarship, research or language learning purposes only