» » »

Echoes Bass tabs (ver.2)

Artists:  A B C D E F G H I J K L M N O P Q R S T U V W X Y Z # 

Echoes Bass tabs (ver.2)

Pink Floyd
Rating:
0/5 (0 votes)

Hard to play? Try these video lessons and learn fast.
                (Part1)
(Live)
Pink Floyd
Echoes (Part 1)

 Intro

G ||-------------|------------7---|-------------------|-----------------|
A ||--5---5------|-----5----------|------5-------5----|--5---5-5--5-5-7-|
D ||-------------|-------5------5-|---5-------5-------|-----------------|
E ||---------3---|--3-------------|-5-------5---------|-----------------|

                                  (Play to rhythm)
G ||-----|--7----|--7-------7---|-----|------|-----|-----|----------------|
A ||-----|-------|------------7-|-----|------|-----|-----|--7--5----------|
D ||--5--|-----5-|------5-------|-----|------|-----|-----|-------7---5----|
E ||-----|-------|----5---------|--7--|--10--|--9--|-----|----------------|


G ||------------|---------7|------7------|----------7-------|-------7-------|
D ||------------|-------7--|-7------7--7-|------------------|-7-7-----5-----|
A ||--0----0----|--5-------|--5----------|-5----5------5-5--|-------------5-|
E ||----3-------|----------|-------------|----5-------5-----|-----------5---|

             (Play to rhythm)
G ||-----------|-------|------|-7----|-7------7-|----|----|------|-----|
D ||--5--5-5---|-5-7---|------|------|----------|--7-|----|------|-----|
A ||-----------|-----5-|------|---5--|-----5----|----|----|------|-----|
E ||-----------|-------|------|------|---5------|----|-7--|--10--|--9--|

G ||----------------|--------|
D ||--7--5----------|--------|
A ||-------7-5---0--|---0----| (Leads into Verse)
E ||----------------|-3------|


Verse (1 & 2)

      Overhead...Hangs....And Deep..........In Labyrinths....
(New Lyrics on Verse 2 w/ same rhythm)
G ||-------------------|---------------|-------------|----------------------|
D ||-------------------|---------------|-------------|----------------------|
A ||--5----------3-----|-------4---4-0-|--5----3---3-|------0---4-4-4-5h4---|
E ||-------------------|---3-----------|-------------|---3------------------|


G ||-------------------|---------------|-------------|----------------------|
D ||-------------------|---------------|-------------|----------------------|
A ||--5----------3-----|-------4---4-0-|--5----3---3-|-0-------0--4-4-4-5h4-|
E ||-------------------|---3-----------|-------------|---3---3--------------|


G ||-------------------|-----------------|
D ||-------------------|-----------------|
A ||--5------4---0-----|-------04---5----|
E ||-----------------3-|---3-------------|


Chorus

    A
G ||-----------------------|--------------------------|
D ||-----------------------|--------------------------| x3 (Go to C after 3rd)
A ||---5-4-3-2-1-0-1-3-5-3-|-5-7-8-7-8-0-3--3-4-5-----|
E ||-----------------------|--------------------------|

    B
G ||---------------------|
D ||---------------------| (Optional, After First 2 Times)
A ||--5--78-8--75--------|
E ||---------------------|

    C
G ||------------------------------------------------------|
D ||------------------------------------------------------| (After 3rd Time)
A ||--8-7--53------2h33h4---0-| (Note Leads into Verse #2-|
E ||-----------1------------------------------------------|

(To Verse #2 after C)

Chorus (After Verse #2)

G ||------------|-------------------|-----------------|
D ||------------|-------------------|-----------------| x3
A ||----5-4-3-2-|-1-1--1--0-1-1-1---|-1-2-3-4-5-------|
E ||------------|-------------------|-----------------|

    B
G ||---------------------|
D ||---------------------| (Optional, After First 2 Times)
A ||--5--78---5--7-8-----|
E ||-------------5-------|

    C
G ||------------------------------|
D ||------------------------------| (After 3rd Time)
A ||--8-7--53------2h33h4---0-----|
E ||-----------1------------------|


Guitar Solo

G ||-------------------|---------------|-------------|----------------------|
D ||-------------------|---------------|-------------|----------------------|
A ||--5----------3-----|-------4---4-0-|--5----3---3-|------0---4-4-4-5h4---|
E ||-------------------|---3-----------|-------------|---3------------------|


G ||-------------------|---------------|-------------|----------------------|
D ||-------------------|---------------|-------------|----------------------|
A ||--5----------3-----|-------4---4-0-|--5----3---3-|-0-------0--4-4-4-5h4-|
E ||-------------------|---3-----------|-------------|---3---3--------------|

G ||-------------------|-----------------|
D ||-------------------|-----------------|
A ||--5------4---0-----|-------04---5----|
E ||-----------------3-|---3-------------|


Last Part before Jam Section

(Part 1 & 2)
    A
G ||-----------------------|------------------------|
D ||-----------------------|------------------------|       x3
A ||---5-4-3-2-1---1-2-3-4-|-5-4-3-2-1---1-2-3-4-5--|
   (To Next Line)
E ||-----------------------|------------------------|

    B
G ||---------------------|
D ||---------------------| (Optional, After First 2 Times)
A ||--5--78---5--7-8-----|
E ||-------------5-------|

    C
G ||------------------------------|
D ||------------------------------| (After 3rd Time)
A ||--8-7--53------2h33h4---0-----|
E ||-----------1------------------|


(Part 3)

G ||-------------------|----------------------|
D ||-------------------|----------------------|   x3
A ||--5--5--5--5-4-3-2-|-1-1--1-2-3-4-5-------|
E ||-------------------|----------------------|

G ||------------------------------|
D ||------------------------------| (After 3rd Time)
A ||--8-7--53------2h33h4---------| (Directly into Jam Section)
E ||-----------1------------------|

Jam Section

G ||------------------------------|
D ||------------------------------|     Repeat over and over
A ||--3h5-5--5-3h55-5-------------|
E ||------------------------------|


Variations:

(Play at end of Measure)
G ||-------------------||
D ||------3-3----------||
A ||--5--------3h5-----||
E ||-------------------||

G ||-------------------||
D ||------3-5----------||
A ||--5--------3h5-----||
E ||-------------------||

G ||-------------------||
D ||------5-3----------||
A ||--5--------3h5-----||
E ||-------------------||


- This took a long time.
            
Hard to play? Try these video lessons and learn fast. | Correct




comments powered by Disqus
↑ Back to top | Tablatures and chords are parodies/interpretations of the original songs. You may use it for private study, scholarship, research or language learning purposes only