>
 >
Echoes Live 1

Echoes Live 1 Guitar Tabs

Pink Floyd - Echoes Live 1 chords, tabs, tablatures, lyrics

Guitar lessons | Add/correct | Request | Top 50 tabs Artists:  A B C D E F G H I J K L M N O P Q R S T U V W X Y Z 0-9

Echoes Live 1 Guitar Tabs – Pink Floyd

CD, Sheet music, Poster

Do you like Echoes Live 1? Share with your friends now
ChordsTabsTabs v2
Intro (Bottleneck slide)
--21~~~~~~~~~~~~~~~~~~~~~~~~~~~/23~~~~~~~~~~~~~~~~~~~~~~~~~~~~~~~~~~--|
----------------------------------------------------------------------|
----------------------------------------------------------------------|
----------------------------------------------------------------------|
----------------------------------------------------------------------|
----------------------------------------------------------------------|

--21~~~\15~~~~/17~~~~/15~~~~/17~~~~/23~~~~~~~~~~~~~~~~~~~~~~~~~~~~~~--|
----------------------------------------------------------------------|
----------------------------------------------------------------------|
----------------------------------------------------------------------|
----------------------------------------------------------------------|
----------------------------------------------------------------------|

--23~~~\21~~~\15~~~/17~~~~~~~~~~~~~~~~~~~~~~~~~~~~~~~~~~~~~~~~~-------|
----------------------------------------------------------------------|
----------------------------------------------------------------------|
----------------------------------------------------------------------|
----------------------------------------------------------------------|
----------------------------------------------------------------------|

--15~~~\13~~\12~~\8~~~/10~~~~~~~~~~~~~~~~~~~~~~~~~~~~-----------------|
----------------------------------------------------------------------|
----------------------------------------------------------------------|
----------------------------------------------------------------------|
----------------------------------------------------------------------|
----------------------------------------------------------------------|

--10~~/12~~/13~~~/17~~~~/23~~~~~~~~~~~~~~~~~~~~~~~~~~~~~~~~~----------|
----------------------------------------------------------------------|
----------------------------------------------------------------------|
----------------------------------------------------------------------|
----------------------------------------------------------------------|
----------------------------------------------------------------------|

--23~~~\21~~~\15~~~/17~~~---15~~~\13~~\(12)~\8~~~/10~~~~~~~~~~~~~~----|
----------------------------------------------------------------------|
----------------------------------------------------------------------|
----------------------------------------------------------------------|
----------------------------------------------------------------------|
----------------------------------------------------------------------|

--10~~~/23~~~/25~~\21~~/23~~~~\17~~~/18~~\17~~~~~~~-------------------|
----------------------------------------------------------------------|
----------------------------------------------------------------------|
----------------------------------------------------------------------|
----------------------------------------------------------------------|
----------------------------------------------------------------------|

--17~~~\15~~~\13~~\(12)~~~\8~~~/10~~~---10/23~~~~~~~~~~~~~~~~~~~~~----|
----------------------------------------------------------------------|
----------------------------------------------------------------------|
----------------------------------------------------------------------|
----------------------------------------------------------------------|
----------------------------------------------------------------------|

--23~~~/25~~\21~~/23~~\10~~~~~~~~~~~~~~~~~~~~~~~~---------------------|
----------------------------------------------------------------------|
----------------------------------------------------------------------|
----------------------------------------------------------------------|
----------------------------------------------------------------------|
----------------------------------------------------------------------|

--7~------------------------------------------------------------------|
--7~-----------15~-15\14~------15\14----------------------------------|
--8~--------15~---------------------14--------------------------------|
--9~--7/(15)------------14~-----------14\12-11------------------------|
--9~-------------------------------------------12~~~~-----------------|
--7~------------------------------------------------------------------|

----------------------------------14/16/17--14\12---------------------|
-------------------------13-13/15-------------------------------------|
--12/14~~----------12/14----------------------------------------------|
---------15\14/15~~---------------------------------------------------|
----------------------------------------------------------------------|
----------------------------------------------------------------------|

--8~~/10~~~\5~~~------------------------------------------------------|
----------------------------------------------------------------------|
-----------------9\10~~-9/10\9\7\5---3~~~~~---------------------------|
----------------------------------------------------------------------|
----------------------------------------------------------------------|
----------------------------------------------------------------------|
----------------------------------------------------------------------|
trem. dive trem. rise
--------------15~~-15\13\8/10~~~\5~~--------5---5--5/(6)--------------|
-----------(15)-----------------------5\----5-/-5--5/(6)--------------|
--3~~--3/15~~---------------------------\-(5)/-(5)-5/(6)--------------|
-----------------------------------------\-1/-------------------------|
----------------------------------------------------------------------|
----------------------------------------------------------------------|

C#m Bbm7 A G#sus4 G#.......................................(then)..
(Bb)

----------------------------------------------------------------------|
--15\14---------------------------------------------------------------|
-------14-------------------------------------------------------------|
---------14\12-11-----------------------------------------------------|
------------------12~~~-----------------------------------------------|
----------------------------------------------------------------------|

C#m
Overhead the albatross
B
Hangs motionless upon the air
F#m
and deep beneath the rolling waves
G#
In labyrinth's of coral caves
C#m
The echo of a distant time
B
Comes willowing across the sand
F#m
And everything is green and
G#
Submarine.

C#
And no one showed us to the land
G#
And no one knows the where or whys
F#m
But something stirs and something tries


                                                    (Right to Coda A)
                               --4--4--4-4--4-4--4----------|
                               --5--5--5-5--5-5--5----------|
                               --6--6--6-6--6-6--6----------|
                               --6--6--6-6--6-6--6----------|
                               --4--4--4-4--4-4--4----------|
G#            A                -----------------------------|
And starts to climb towards the light


Coda A
(guitar chorus)                                          Repeat once
more
-----------------------------------------------4-4-4--4--4--|
-----------------------------------------------5-5-5--5--5--|
-----------------------------------------------6-6-6--6--6--|
-----------------------1-2-1-2-4-6-4-6-7-6-----6-6-6--6--6--|
-4-3-2-1-0---0-2-4-2-4---------------------4---4-4-4--4--4--|
-----------4------------------------------------------------|

On third time                                           (con't)
----------------------------------------------0--------0----|
------------------------------------------------0--------0--|
------------------------------------------------------------|
-----------------------1-2-1-2-1-----------2--------2-------|
-4-3-2-1-0---0-2-4-2-4-----------4-3-2-0--------------------|
-----------4-----------------------------0--------0---------|
(continue here)
-----0-------0----|
---0---0---1---1--|
------------------|
------------------|
-2-------3--------|
------------------|

Repeat all above for next verse
After second verse and guitar chorus go right into solo.


Solo

------------------------------------------------|
------------------------------------------------|
------------------------------------------------|
------------------------------------------------|
--4---4\2-------------2-4-3~--3 / 4-3-3-4-6-7~--|
----------4---2--4-5----------------------------|

----------------------------------------------------|
----------------------------------------------------|
---------9~-11-11(12)11(13)/ 19(21)--9~-------------|
--9~-11~--------------------------------11~-9~------|
-----------------------------------------------11~--|
----------------------------------------------------|

------9-11(13)-(13)11-11~--|
--/9~----------------------|
---------------------------|
---------------------------|
---------------------------|
---------------------------|

-------------------------------------------------|
-9----9-9h10p9----9-10-12-12(14)12-12(16)12-9~---|
---11----------11--------------------------------|
-------------------------------------------------|
-------------------------------------------------|
-------------------------------------------------|

---------------------------12-------|
--------9---------------12(14)(14)--|
------9---11(12)11(13)--------------|
--/11-------------------------------|
------------------------------------|
------------------------------------|

--12-12(14)12-12-12-11----------------------------------|
-----------------------12-12(14)12-12(14)(16)12-12(14)--|
--------------------------------------------------------|
--------------------------------------------------------|
--------------------------------------------------------|
--------------------------------------------------------|

--12p11----9-11-12-12/16-16-16-16/19-19-19-19/21-21-21-21-21(23)--|
--------12--------------------------------------------------------|
------------------------------------------------------------------|
------------------------------------------------------------------|
------------------------------------------------------------------|
------------------------------------------------------------------|

--21--21-21-18-17~--17\16--------16-17-17p16------------------|
--------------------------17~~~~-------------17~~~~16~~~~17~--|
-----------------------------16~----------------16~~~~/17~~~--|
--------------------------------------------------------------|
--------------------------------------------------------------|
--------------------------------------------------------------|

                                  Repeat 2x more for a total of 3
----x-4-4----------------------------|
----x-5-5--------------2-2-----------|
----x-6-6--------------2-2-----------|
----x-6-6--------------2-2-----------|
--4-x-4-4--4-3-2-1-0**-0-0-0-1-2-3---|
-------------------------------------|

On fourth time (Coda B)
------0-------0-------0-------0----|
--------0-------0---0---0---1---1--|
-----------------------------------|
----2-------2----------------------|
------------------2-------3--------|
--0-------0------------------------|

                                                       Repeat 2x more
for a                                                        total of 3
then go
                                                       to Coda B above
--4-4--4-4--4-4--4-4-------------------------------------|
--5-5--5-5--5-5--5-5---------2-2--2-2--2-2--2-2----------|
--6-6--6-6--6-6--6-6---------2-2--2-2--2-2--2-2----------|
--6-6--6-6--6-6--6-6---------2-2--2-2--2-2--2-2----------|
--4-4--4-4--4-4--4-4-4-3-2-1-0-0--0-0--0-0--0-0-0-1-2-3--|
---------------------------------------------------------|

Now the 'jam' part.

Rythym                            etc...
----------4-4-x-x---------4-4-x-x--|
--4-4-x-x-5-5-x-x-4-4-x-x-5-5-x-x--|
--4-4-x-x-6-6-x-x-4-4-x-x-6-6-x-x--|
--4-4-x-x-6-6-x-x-4-4-x-x-6-6-x-x--|
--2-2-x-x-4-4-x-x-2-2-x-x-4-4-x-x--|
-----------------------------------|

Lead Number 1
-----------------------------------------|
--12(13)12--12--12-12-11-----------------|
--12(13)12---------------11------x-9--6--|
--12(13)12------------------11---x-9--6--|
-----------------------------------------|
-----------------------------------------|

Lead Number 2
----------------------------------------------------------------------------|
--12(13)12-12(13)12-12/17-17-17-17-16-----16h17p16-16-16-16-14--------------|
--12(13)12-12(13)12------------------16-----------------------14----x-9--6--|
--12(13)12-12(13)12--------------------16-----------------------14--x-9--6--|
----------------------------------------------------------------------------|
----------------------------------------------------------------------------|

Lead Number 3
-----16--------16-----18--------18--------16---------16-16--/9~~--|
--/17--17--------17/19--19--------19-19\17--17-------17-17--/9~~--|
---------16****-----------18****--------------16****-16-16--/9~~--|
------------------------------------------------------------/9~~--|
------------------------------------------------------------------|
------------------------------------------------------------------|

And that's pretty much it. This is tough, but you'll get it.





Comments


Popular Pink Floyd tabs & chords
Have A Cigar 2 Bass Tabs
Set The Control For The Heart Of The Sun 1 Bass Tabs
The Last Few Bricks Bass Tabs
Atom Heart Mother Chords
Nobody Home Chords
The Happiest Days Of Our Lives Drum Tabs
Echoes 1 Tabs
Have A Cigar 1 Tabs
The Narrow Way Part 1 Tabs
Pigs On The Wing Part 1 Ukulele


Song lyrics



↑ Back to top | Tablatures and chords are parodies/interpretations of the original songs. You may use it for private study, scholarship, research or language learning purposes only
© 2014 AZChords.com Contact us | Privacy policy | DMCA | Add/correct tabs | Request tabs | Top 50 tabs