» » »

Pink Floyd, Dogs Tabs (ver.4)

Artists:  A B C D E F G H I J K L M N O P Q R S T U V W X Y Z # 

Dogs Tabs (ver.4)

Pink Floyd Tabs
 Rating:
4/5 (4 votes)
Dogs lessons Tabs too difficult? Try these video lessons and learn fast
1
                (Solo)
Pink Floyd - Dogs

The chords on here are correct but theres no solo so heres my attempt
at tabbing the solo's for dogs. 


Solo 1
e|--12--13-12-12-10--10-5-7-8-8-7-5-7--------------------------------------|
B|------------------------------------8-6-5-3-3-5-6/5-3-1---1-3-----6-6-8--|
G|--------------------------------------------------------3-----3-3--------|
D|-------------------------------------------------------------------------|
A|-------------------------------------------------------------------------|
E|-------------------------------------------------------------------------|

e|-----------6--13-13-12-10-10-13-12-10-8-5-3-5-3-1-0-1-0-3-5-3-2-3-5------|
B|--6-6-3-6----------------------------------------------------------------|
G|---------------------------------------------------------------------2---|
D|-------------------------------------------------------------------------|
A|-------------------------------------------------------------------------|
E|-------------------------------------------------------------------------|

e|--------2-2-3-3-5-0-1-0-1-3-3-5-5-5-7-5-5-7-7-8-6-4-3-1-1-1-13-13-12-11--|
B|-------------------------------------------------------------------------|
G|-2-2-4-------------------------------------------------------------------|
D|-------------------------------------------------------------------------|
A|-------------------------------------------------------------------------|
E|-------------------------------------------------------------------------|

e|--10--8-7-6-5-4-3-2-1-1-3--1~~-------------------------------------------|
B|-------------------------------------------------------------------------|
G|-------------------------------12^--10/9/12--/12--10/9-------------------|
D|-------------------------------------------------------------------------|
A|-------------------------------------------------------------------------|
E|-------------------------------------------------------------------------|

Solo 2
e|--12--13--12--17-15--12-13-15-13-12-12/13-22-9/10-8-6/5/6--8-6-10--8-6---|
B|--13--15--13---------13-15-17-15-13-13/15--------------------------------|
G|-------------------------------------------------------------------------|
D|-------------------------------------------------------------------------|
A|-------------------------------------------------------------------------|
E|-------------------------------------------------------------------------|

                                                
e|--5/6-8-8-10-12-12-13-17/18/17-10-8-5--------13-15/17/15-10-8-------------|
B|-------------13-13-15------------------13-15------------------------------|
G|--------------------------------------------------------------------------|
D|--------------------------------------------------------------------------|
A|--------------------------------------------------------------------------|
E|--------------------------------------------------------------------------|

Solo 3

e|-10-/17--20/19/18/17-17/15/17----------------------------------12--12/15/10-|
B|--------------------------------20/18--12/10/1/2-5--------------------------|
G|---------------------------------------12/10/1/2-5--------------------------|
D|----------------------------------------------------7-5---5-----------------|
A|--------------------------------------------------------5---5---------------|
E|----------------------------------------------------------------------------|
            
Submit corrections

comments powered by Disqus
↑ Back to top | Pink Floyd Tabs for Dogs. Lyrics for acoustic guitar and electric guitar. 1 Tablatures and chords are parodies/interpretations of the original songs. You may use it for private study, scholarship, research or language learning purposes only