>
 >
Dogs

Dogs Bass Tabs

Pink Floyd - Dogs chords, tabs, tablatures, lyrics

Guitar lessons | Add/correct | Request | Top 50 tabs Artists:  A B C D E F G H I J K L M N O P Q R S T U V W X Y Z 0-9

Dogs Bass Tabs – Pink Floyd

CD, Sheet music, Poster

Do you like Dogs? Share with your friends now
Bass TabsChordsChords v2TabsTabs v2Tabs v3Ukulele
  |I think this is right. its very close. You may need to add a bit to it but its
bassicaly right.

Dogs


            Bass Tuning: DGCF

|-----------------------------------------------------------------------------~|
|-----------------------------------------------------------------------------~|
|-7-7-x-7-7-x-7-7-x-7-7-x-3-3-x-3-3-x-3-3-x-3-3-x-2-2-x-2-2-x-2-2-x-2-2-x-1-1-~|
|-----------------------------------------------------------------------------~|


~---------------------|   Untill Change (3:40---|
~-----------------------------------------------|   Some Variations and differences.
~-x-1-1-x-1-1-x-1-1-----------------------------|
~-----------------------------------------------|

3:40

||-------------------------------------------------------|| x2
||*-----------------------------------------------------*||
||*-7\5----5----5----5----5----5/7----7----7----7----7--*||
||-------------------------------------------------------||

|---------------------------------||------12------12---------10------10----||
|---------------------------------||*-------------------------------------*||
|-7-5-3𦠫---3---3-3---3---5-7--||*-10------10---------8-------8--------*||
|---------------------------------||---------------------------------------||

|-----------------------------------------------------------|
|-----------------------------------------------------------|
|-7---7---7---7---7---7---3---3---3---3---2---2---2---2---2-|
|-----------------------------------------------------------|

5:30

||----------9----7--| x8   |-999--------------------------------4--4------||
||-------9----------|      |----------------------------------4---4-------||
||---7--------------|      |-------3---5-----3---5-----7---2----2---------||
||------------------|      |----------------------------------------------||

|____________________________Play Through TWICE ___________________________|

Verse

(And When You Loose Control...)


|----------9----7--|  x7   |-------------------------------------|
|-------9----------|       |-------------------------------------|
|---7--------------|       |-77777-7----5----3----2----0---7-7--|
|------------------|       |-------------------------------------|


|_______________________Play Through TWICE ______________________|


Synth Section (Optional)

|---------------------------------------------------------------|
|---------------------------------------------------------------|
|-7---7---7---7---3---3---3---3---2---2---2---2---1---1---1---1-|
|---------------------------------------------------------------|

  Untill End Of Section

Verse

 (Gotta Admit)

|-----------------------------------------------------------------------------~|
|-----------------------------------------------------------------------------~|
|-7-7-x-7-7-x-7-7-x-7-7-x-3-3-x-3-3-x-3-3-x-3-3-x-2-2-x-2-2-x-2-2-x-2-2-x-1-1-~|
|-----------------------------------------------------------------------------~|


~---------------------|
~---------------------|
~-x-1-1-x-1-1-x-1-1---|
~---------------------|


||-------------------------------------------------------|| x2
||*-----------------------------------------------------*||
||*-7\5----5----5----5----5----5/7----7----7----7----7--*||
||-------------------------------------------------------||

|---------------------------------||------12------12---------10------10----||
|---------------------------------||*-------------------------------------*||
|-7-5-3𦠫---3---3-3---3---5-7--||*-10------10---------8-------8--------*||
|---------------------------------||---------------------------------------||

|-----------------------------------------------------------|
|-----------------------------------------------------------|
|-7---7---7---7---7---7---3---3---3---3---2---2---2---2---2-|
|-----------------------------------------------------------|


Final Verse

|---------------------|   |-----------------------------------------------------|
|---------------------|   |-----------------------------------------------------|
|--10---5------7---5--|   |--10---5-----3---3----3-3---3---2---2---10-5--5----|
|---------------------|   |---------------------------------------------------0-|

|__Play Untill Change_|





Comments


Popular Pink Floyd tabs & chords
Run Like Hell 2 Bass Tabs
Breath Reprise Tabs
Careful With That Axe Eugene Live Tabs
Corporal Clegg 1 Tabs
Echoes Live Tabs
If Tabs
One Of The Few Tabs
Time 3 Tabs
Wish You Were Here 2 Tabs
Brain Damage Ukulele


Song lyrics



↑ Back to top | Tablatures and chords are parodies/interpretations of the original songs. You may use it for private study, scholarship, research or language learning purposes only
© 2014 AZChords.com Contact us | Privacy policy | DMCA | Add/correct tabs | Request tabs | Top 50 tabs