>
 >
Dark Side Of The Moon 1

Dark Side Of The Moon 1 Guitar Tabs

Pink Floyd - Dark Side Of The Moon 1 chords, tabs, tablatures, lyrics

Guitar lessons | Add/correct | Request | Top 50 tabs Artists:  A B C D E F G H I J K L M N O P Q R S T U V W X Y Z 0-9

Dark Side Of The Moon 1 Guitar Tabs – Pink Floyd

CD, Sheet music, Poster

Do you like Dark Side Of The Moon 1? Share with your friends now
Bass TabsBass Tabs v2TabsTabs v2
Pink Floyd - Dark side of the moon

Breathe -

Em/D [0 2 2 0 3 0] or (Alt.2) [0 7 5 7 0 0]

A7 [x 0 2 0 2 0] or (Alt. 2) [5 7 5 6 5 5]
(Use Alt.2 together with Alt.2 Em/D)

C/B [3 3 2 0 0 0] or [X 3 5 4 5 3]

Bm [X 2 4 4 3 2]

F [1 3 3 2 1 1]

G [3 5 5 4 3 3]

Eb [X 6 8 8 8 6]

Em [0 2 2 0 0 0]


Em/D                    A7
Breathe, breathe in the air 

Em/D               A7
Don't be afraid to care 

Em/D                   A7
Leave, but don't leave me 

Em/D                           A7
Look around and chose your own ground 

    C/B
For long you live and high you fly 

    Bm
And smiles you'll give and tears you'll cry 

    F
And all you touch and all you see 
   G                  F    Eb
Is all your life will ever be 

Em/D            A7   
Run, run rabbit run 

Em/D                      A7   
Dig that hole, forget the sun 

Em/D                         A7  
And when at last the work is done 

Em/D                                       A7
Don't sit down, it's time to start another one 

    C/B
For long you live and high you fly 

    Bm
But only if you ride the tide 

    F
And balanced on the biggest wave 

    G              F     Eb    Em
You race toward an early grave. 

**********************************
Continues with "On the run" and "Time"
"Time" ends with the chords
Dm....F......

Dm [X X  0 2 3 1] 
F [1 3 3 2 1 1] 

and then directly to.....

**********************************

Em/D       A7
Home, home again 

Em/D                      A7
I like to be there when I can 

Em/D                    A7
When I come in cold and tired 

Em/D                                  A7
It's good to warm my bones beside the fire 

C/B
Far away across the field 

    Bm
The tolling of the iron bell 

      F
Calls the faithful to their knees 

   G               F            Bm
To hear the softly spoken magic spells.


TIME -

VERSE:(w/ distortion) 

F#M                                       A            Asus4   A 
Ticking away, the moments that make up a dull day 
Lead I 
-------------------------------------- 
----2----------2--------2------------- 
---4>(6)======(6)=4--2--2------------- 
----------------------------2vvvvv---- 
-------------------------------------- 
-------------------------------------- 

E                                                 F#m 
You fritter and waste the hours in an offhand way 
Lead II 
---7/9--9--9\7--7\--- 
--------------------- 
---7/9--9--9\7--7\--- 
--------------------- 
--------------------- 
--------------------- 
                                             A 
Kicking around on a piece of ground in your home town 
E                                                   F#m 
Waiting for someone or something to show you the way. 

Dmaj7                           Amaj7 
Tired of lying in the sunshine, staying home to watch the rain, 
Dmaj7                           Amaj7 
You are young, and life is long, and there is time to kill today, 
Dmaj7                       C#m7 
And then one day you find, ten years have got behind you 
Bm7                           E 
No one told you where to run, you missed the starting gun. 

SOLO: To get the solo to sound like Pink Floyd you should use Delay with some sustain.
e-|-------------------------------------------------------------------------- 
B-|-------------------------------------------------------------------------- 
G-|---------------------------------4>(6)======>(5)===>(6)vvvvvvvv>(5)>(6)--- 
D-|----2>4vvvvvvvvvvvvvvvv--------------------------------------------------- 
A-|-------------------------------------------------------------------------- 
E-|-------------------------------------------------------------------------- 
  

e-|------------------------------------------------- 
B-|------------------------------------------------- 
G-|---4<(6)=======>4>2---4>(6)--4vvvvvvvvvvvvvvv---- 
D-|------------------------------------------------- 
A-|------------------------------------------------- 
E-|------------------------------------------------- 

e-|---------------------------------------------5>(6)---------------- 
B-|------------------------------5-5>7>5>7>5>7------------7vvvvvv---- 
G-|------------------------/6---------------------------------------- 
D-|--4<(6)====>4vvvvvv----------------------------------------------- 
A-|------------------------------------------------------------------ 
E-|------------------------------------------------------------------ 

e-|---------------------------------------------9--9---9--9>(10)======>9-- 
B-|----------------------------------------------------------------------- 
G-|---4>(6)==========>4>2-----4>(6)------6/9----9--9---9------------------ 
D-|----------------------------------------------------------------------- 
A-|----------------------------------------------------------------------- 
E-|----------------------------------------------------------------------- 

e-|------------------------------------------------------------------------------- 
B-|--10>(12)==========>10----9vvvvvvv--9>(10)=====>9------------------------------ 
G-|-----------------------------------------------------9>(10)==>(11)==========>9- 
D-|------------------------------------------------------------------------------- 
A-|------------------------------------------------------------------------------- 
E-|------------------------------------------------------------------------------- 

e-|----------------------------------17---------------------------------- 
B-|----------14---17>(19)----17>(19)-----17>(19)==========>17---17>(19)-- 
G-|------14-------------------------------------------------------------- 
D-|--/16----------------------------------------------------------------- 
A-|---------------------------------------------------------------------- 
E-|---------------------------------------------------------------------- 

e-|-------------------------------------------------------------------------- 
B-|--17---------------------------------------------------------------------- 
G-|-------16>(18)vvvvvvv--16>(19)>16>(18)vvvv---16>(18)==========>16vvvvvvv-- 
D-|-------------------------------------------------------------------------- 
A-|-------------------------------------------------------------------------- 
E-|-------------------------------------------------------------------------- 

e-|--------------------------------------------------17>(19)-----17>(19)=====>17- 
B-|--------15--15---14>(15)>14-------------------14------------------------------ 
G-|----16------------------------14---------------------------------------------- 
D-|----------------------------------16vvvvvvv----------------------------------- 
A-|------------------------------------------------------------------------------ 
E-|------------------------------------------------------------------------------ 

e-|---------------------------------------------------------------------------- 
B-|----17>(19)vvvvvvvvvvvvv----(19)>17--17vvvv--------------------------------- 
G-|----------------------------------------------(17)>16>14--14---16>(18)vvvv-- 
D-|---------------------------------------------------------------------------- 
A-|---------------------------------------------------------------------------- 
E-|---------------------------------------------------------------------------- 

e-|---19>(21)===>19--19>(21)=====>19--19vvvvvvv---- 
B-|------------------------------------------------ 
G-|------------------------------------------------ 
D-|------------------------------------------------ 
A-|------------------------------------------------ 
E-|------------------------------------------------ 

e-|---16------------------------------------------------------ 
B-|-------17--------17/19vvvvvv---17>19>17---17\14vvvvvvvvv\-- 
G-|-----------16---------------------------------------------- 
D-|----------------------------------------------------------- 
A-|----------------------------------------------------------- 
E-|----------------------------------------------------------- 

This begins where the rhythm changes to the progression that plays over the 
chorus(begins with Dmaj7) 
e-|---------------------------------------------------------- 
B-|----------7---10/12--10vvvvv---9--10---9>10>9>7\5vvvvvv--- 
G-|-----2/7-------------------------------------------------- 
D-|--4------------------------------------------------------- 
A-|---------------------------------------------------------- 
E-|---------------------------------------------------------- 

e-|------------------------------------------------------------- 
B-|--7/9---9----7\5-----5\2/5-----2---2------------------------- 
G-|----------------------------------4>(6)======vvvv>4--4>(7)--- 
D-|------------------------------------------------------------- 
A-|------------------------------------------------------------- 
E-|------------------------------------------------------------- 

e-|------------------------------------------------------------------- 
B-|------------------------------------------------------------------- 
G-|--(6)======>4--------(6)========>4>2>4>2vvvvvv--4>(6)=========>4--- 
D-|------------------------------------------------------------------- 
A-|------------------------------------------------------------------- 
E-|------------------------------------------------------------------- 
  
  
  

e-|------------------------------------------------------------------- 
B-|------------------------------------------------------------------- 
G-|----4vvvvvvvvvvvv-----2vvvvvvvvvvvv--------4----------------------- 
D-|--------------------------------------4/6-------6\4--2vvvvvvv------ 
A-|------------------------------------------------------------------- 
E-|----------------------------------------------------------------0-- 

(E)    F#m                                                    A 
And you run, and you run to catch up to the sun, but it's sinking, 
Lead III 
------------------ 
---7---5---3---2-- 
------------------ 
---7---5---4---2-- 
------------------ 
------------------ 

E                                              F#m 
And racing around, to come up behind you again 
Lead IV 
----------------------------------------------- 
---2------------------------------------------- 
--4>(6)------4>(6)>4>2-----2------------------- 
------------------------4------2-vvvvvvvvvvv--- 
----------------------------------------------- 
----------------------------------------------- 

E                                                  A        Asus4   A 
The sun is the same in a relative way, but your older, 
Lead V 
----------------------- 
----10---12----10------ 
----0-----0-----0------ 
----11---12----11------ 
----------------------- 
----------------------- 

E                                              F#m 
Shorter of breath, and one day closer to death. 

Dmaj7                           Amaj7 
Every year is getting shorter, never seem to find the time 
Dmaj7                            Amaj7 
Plans that either come to naught, or half a page of scribbled lines 
Dmaj7                           C#m 
Hanging on in quite desperation is the english way, 
Bm                                           Bm7         F 
The time is gone, the song is over thought I'd something more to say.


Money -

CHORDS:
B5-  x-2-4-4-o-x
F#m- 2-4-4-2-2-2
Em-  0-2-2-0-0-0


 Gtr 1
|--------------------------|----------------------------|
|--------------------------|----------------------------|
|----2---------------------|----4-----------------------|
|-------4------------------|-------5--------------------|
|-2--------2---------2--5b-|-2--------2--------2--x--5b-|
|-------------2--5b--------|-------------2--5-----------|

                               Riff A- - - - - - - - - - - |
|-----------------------------|-----------------------------|
|-----------------------------|-----------------------------|
|----4------------------------|----4------------------------|
|-------4---------------------|-------4---------------------|
|-2--------2--x---------2--5b-|-2--------2--x---------2--5b-|
|----------------2--5b--------|----------------2--5b--------|

 Gtr 2 Plays Riff A 4X
 Gtr 2 (chords, w/ tremolo)
 Gtr 1 (tabbed)
   B5                                      B5
|--------------------|-----------------------|-------------------------|
|-----7--7------7----|----7--7----7----7-----|----7--7----7-----7------|
|-----7--7------7----|----7--7----7----7-----|----7--7----7-----7------|
|-----7--7-----------|----7--7---------7-----|----7--7----------7------|
|--------------------|-----------------------|-------------------------|
|--------------------|-----------------------|-------------------------|

                        %
                        Verse 1,2,3
                        Play Riff A 8X
                        B5                                        B5
|---------------------||--------------------|----------------------|
|----7--7----7----7---||---7--7-----7-------|------7--7-----7------|
|----7--7----7----7---||o--7--7-----7-------|------7--7-----7------|
|----7--7---------7---||o--7--7-----7-------|------7--7-----7------|
|---------------------||--------------------|----------------------|
|---------------------||--------------------|----------------------|

                                             B5
|------------------|-----------------------|-----------------------|
|-7b---7b----------|----7--7----7----7-----|---7--7----7----7------|
|-7b---7b----------|----7--7----7----7-----|---7--7----7----7------|
|------------------|----7--7---------7-----|---7--7---------7------|
|------------------|-----------------------|-----------------------|
|------------------|-----------------------|-----------------------|

                  B5
|-------------------|---------------------|-----------------|
|--7--7---7----7----|---7--7-----7----7---|-7b-----7b-------|
|--7--7---7----7----|---7--7-----7----7---|-7b-----7b-------|
|--7--7--------7----|---7--7----------7---|-----------------|
|-------------------|---------------------|-----------------|
|-------------------|---------------------|-----------------|

                     Gtr 1 and 3 (tabbed)
                     Gtr 2 (chords)                            3rd time
                     F#m                              Em       to CODA
|-------------------|------------------------|----------------------------|
|-7--7----7-----7---|------------------------|----------------------------|
|-7--7----7-----7---|------------------------|----------------------------|
|-7--7----------7---|-4--4--4--------------4-|--3--2----------------------|
|-------------------|----------4--------4----|--------2--------0-0-2-2-5b-|
|-------------------|-------------2--5-------|-----------0--3-------------|


Gtr 1 plays Riff A 2X
Gtr 3 (tabbed)
 B5                   |-1- - - - - - - - -|
|--------------------|---------------------||
|--7--7----7----7----|---7--7----7----7----||
|--7--7----7----7----|---7--7----7----7---o||
|--7--7---------7----|---7--7---------7---o||
|--------------------|---------------------||
|--------------------|---------------------||


                            Sax solo
 |-2- - - - - -             Gtr 3
 B5                         Gtr 1 plays Riff A 8X                 4X
|----10--10\--------------||------------------|-------------------||
|----10--10\---7-----7----||---7--7---7---7---|---7--7---7---7----||
|--------------7-----7----||o--7--7---7---7---|---7--7---7---7---o||
|--------------7-----7----||o--7--7-------7---|---7--7-------7---o||
|-------------------------||------------------|-------------------||
|-------------------------||------------------|-------------------||



|- - - - - - - - - - - - - - - - - - - - - - - - - - -|
|  Rhy Fig 1               Rhy Fig 2                  |
| |-2---2----------------||-7---7-----------------||  |
| |-3---3----------------||-8---8-----------------||  |
| |-4---4----------------||-9---9-----------------||  |
| |----------------------||-9---9-----------------||  |
| |---------2----2----2--||-----------------------||  |
| |----------------------||---------0----0----0---||  |
|                                                     |
|- - - - - - - - - - - - - - - - - - - - - - - - - - -|


    *Em                         4X *B5                      4X
|-||----------------------------||--------------------------||
| ||----------------------------||--------------------------||
| ||o----9---------------------o||----4--------------------o||
| ||o-------9------------------o||-------4-----------------o||
| ||--7--------7---------7--10b-||-2--------2--------2--5b--||
| ||--------------7--10---------||-------------2--5---------||
|   *1st and 3rd times only
|
| ||----------------------------||--------------------------||
| ||-----8--8-----8------8------||----7--7-----7------7-----||
| ||o----9--9-----9------9-----o||----7--7-----7------7----o||
| ||o----9--9-----9------9-----o||----7--7------------7----o||
| ||-----7--7-----7------7------||--------------------------||
|-||----------------------------||--------------------------||



Gtr 1 and 3 (tabbed)
Gtr 2 (chords)
   F#m                        Em
|---------------------------|--------------------------|
|---------------------------|--------------------------|
|---------------------------|--------------------------|
|--4--4--4---------------4--|-3--2---------------------|
|-----------4---------4-----|-------2---------0--2--5b-|
|--------------2--5b--------|----------0--3b-----------|



||---------------------------||
||---------------------------||
||o-4-4-4-4-4-4-4-4-4-4-4-4-o||
||o-4-4-4-4-4-4-4-4-4-4-4-4-o||
||--2-2-2-2-2-2-2-2-2-2-2-2--||
||---------------------------||


   Gtr 3+4 (Reverb and Delay)
|-|--------------~~~~~~|~~~~~~-----------|----------------------10-----|
| |-----~~~~~-10b------|-------r--7--10--|-------~~~~~~~~~-/12------12-|
| |-9b--7--------------|-----------------|-9b---7----------------------|
| |--------------------|-----------------|-----------------------------|
| |--------------------|-----------------|-----------------------------|
| |--------------------|-----------------|-----------------------------|
|
|  Gtr 1
|  Riff B- - - - - - -| Play Riff B, 7X
| |--------------------|
| |--------------------|
| |--------------------|
| |--------------------|
| |-2----5---4---3---2-|
|-|--------------------|
    Pm- - - - - - - - |


|--~~~~~~~~~~~~~--------|-12b--------~~~~~~~-|-----------------|
|-12-------------12--12-|--------12-12-------|-----------------|
|-----------------------|--------------------|-----9b----7--9--|
|-----------------------|--------------------|-----------------|
|-----------------------|--------------------|-----------------|
|-----------------------|--------------------|-----------------|



|--------------------|-7-------------10--12--12b--r--|
|------------------7-|----10--10p12------------------|
|--~~~~~~~~~~-9b-----|-------------------------------|
|-9------------------|-------------------------------|
|--------------------|-------------------------------|
|--------------------|-------------------------------|



|-|---------10------12b-|-----12b--r--10--12-|--~~~~~--------------------|
| |-12--12--------------|--------------------|-12-----10b----------------|
| |---------------------|--------------------|-------------11\9-------7b-|
| |---------------------|--------------------|---------------------------|
| |---------------------|--------------------|---------------------------|
| |---------------------|--------------------|---------------------------|
|
|
| |---------------------|--------------------|---------------------------|
| |------------8--------|-------8------------|------------------8---8----|
| |------------9--------|-------9------------|------------------9---9----|
| |------------9--------|-------9------------|----------9-----------9----|
| |------------7--------|-------7------------|----7----------------------|
|-|---------------------|--------------------|---------------------------|



|-|--------------------------|-------------------|--------------------7-|
| |--------------------------|-------------------|------------------7---|
| |--~~~~~-------------------|-------------------|-7-7--~~~~~---9b------|
| |-9------7-----------------|---------7---9p7---|------9---------------|
| |-----------9\7----5b---~~~|~~~-7/9------------|----------------------|
| |----------------------7---|-------------------|----------------------|
|
|                             Play Riff B, 4X
| |--------------------------|
| |------------------8---8---|
| |------------------9---9---|
| |-----------9----------9---|
| |----7---------------------|
|-|--------------------------|



|----------------10-12-|-12b--------~~~~~~~-14b-|
|-10-10h12-12-12-------|--------12-12-----------|
|----------------------|------------------------|
|----------------------|------------------------|
|----------------------|------------------------|
|----------------------|------------------------|



|-|-------14--12--10---|------------------------|----------------|
| |--------------------|-12-10---------~~~~-10b-|--10--8--7------|
| |--------------------|-------11/9-9/11--------|----------------|
| |--------------------|------------------------|----------------|
| |--------------------|------------------------|----------------|
| |--------------------|------------------------|----------------|
|
|
| |--------------------|------------------------|----------------|
| |--------------------|------------------------|----------------|
| |--------------------|-Play last--------------|----------------|
| |-----4---3-----2--x-|-measure----------------|-9--7-----------|
| |--------------------|------------------------|-------10--9--5-|
|-|-2------------------|------------------------|----------------|
   Pm- - - - - - - - -|


|-|-------------------|---------------------|--------------||
| |-9b--7-------------|---------7--b--------|-----9--b-----||
| |---------11------~~|~~~~~~~--7--b--------|~~~~-9--b-----||
| |------------10--9--|-------------------9-|------------9-||
| |-------------------|---------------------|--------------||
| |-------------------|---------------------|--------------||
|
|                                            Play Riff B, 3X
| |-------------------|---------------------|
| |-------------------|---------------------|
| |-------------------|---------------------|
| |-------------------|---------------------|
| |-7---5---4---3-----|-2----5------4--3--2-|
|-|-------------------|---------------------|
                        Pm- - - - - - - - -|


  Gtr 3
|-7-----------7-|-----------------~~|----10-------|----------------|
|-7----x------7-|----------/12--12--|-12--------7-|----------~~~~~-|
|---------------|-------------------|-----------7-|---------9b-----|
|---------------|-------------------|-------------|-9--------------|
|---------------|-------------------|-------------|----------------|
|---------------|-------------------|-------------|----------------|



|-----------------|--------------|--------------|--7---------------|
|-----------------|--7----7------|--------------|-------------7b---|
|-7--9------~~~~~-|--7----7------|-----------9b-|-------------9b---|
|-------9--9------|--7----7------|-7h9----------|------------------|
|-----------------|--------------|--------------|------------------|
|-----------------|--------------|--------------|------------------|



|--~~~~~~~~~~~--|--------------|------------------------|-------------|
|-7b------------|--------------|------~~~~~~------------|-----~~~~~---|
|-9b------------|------9b-r-p7-|-9b--9b--------r-p0--7b-|--r-b------r-|
|---------------|--------------|------------------------|-------------|
|---------------|--------------|------------------------|-------------|
|---------------|--------------|------------------------|-------------|
                                 PH


|------------------10-|------------10---|-12b--12b-------r--|
|----------x---/12----|--------10-------|-------------------|
|--~~~~~~~------------|-----------------|-------------------|
|-9-------------------|-----------------|-------------------|
|---------------------|-----------------|-------------------|
|---------------------|-----------------|-------------------|



|-12p10-----------|----------------------|-----------------|
|----------10-10--|-10-------~~~~~~~-----|------~~~~~------|
|-----------------|----9/10/11--------9b-|--r--b------r--\-|
|-----------------|----------------------|-----------------|
|-----------------|----------------------|-----------------|
|-----------------|----------------------|-----------------|



|---------------------|------------------|------------------|
|---------------------|------------------|--------7--b------|
|--~~~~~--------------|------------------|--------7--b------|
|-9-----7-------------|------------------|----------------9-|
|----------10----9--5-|-7--5--4--0--3--2-|------------------|
|---------------------|------------------|------------------|


                     (Gtr 4)
|-------------------|-----------------------|-(10)-(12)-(12)b--(12)b-----||
|---------9--b------|-------------(10)-(12)-|----------------------------||
|~~~~~~---9--b------|-----7-/(11)-----------|----------------------------||
|------9---------9--|---------------------9-|----------------7---------9-||
|-------------------|-----------------------|----------------------------||
|-------------------|-----------------------|----------------------------||


   Gtr 4
|-|-10-12--~~~~~~---|---19-22b---r-22-22-|-22----~~~~~-----------|
| |-------12-----\--|--------------------|----22b------22b-\-----|
| |-----------------|--------------------|-----------------------|
| |-----------------|--------------------|-----------------------|
| |-----------------|--------------------|-----------------------|
| |-----------------|--------------------|-----------------------|
|
|  Gtr 3             Riff C- - - - - - -|
| |-----------------|--------------------|-----------------------|
| |-------7---------|-------7-7---x-9\---|--------7-7---x-9\-----|
| |-------7---------|-------7-7---x-9\---|--------7-7---x-9\-----|
| |-------7---------|--------------------|-----------------------|
| |-----------------|--------------------|-----------------------|
|-|-----------------|--------------------|-----------------------|


Gtr 3 (play last meas.)
Gtr 4                  Gtr 3 plays Riff C, 4X
|---------------------|------------------|------------------|
|-------15-17b--15b-r-|--~~~~~~~~-x-17b--|------r--17--15b--|
|--/16----------------|-16---------------|------------------|
|---------------------|------------------|------------------|
|---------------------|------------------|------------------|
|---------------------|------------------|------------------|



|------------------------|------------------10-|
|--~~~~~~~~~-------------|---~~~~~~~~~-/12-----|
|-16-----------9---7---9-|-/11-----------------|
|------------------------|---------------------|
|------------------------|---------------------|
|------------------------|---------------------|


   Gtr 1 plays Rhy Fig 2, 4X
|-|--~~~~~~~~~~---------|-22b--------22-22--|-22---~~~~~~~-----|
| |-12---------------19-|-------------------|----22b-------22b-|
| |---------------------|-------------------|------------------|
| |---------------------|-------------------|------------------|
| |---------------------|-------------------|------------------|
| |---------------------|-------------------|------------------|
|
|  Riff D- - - - - - - |  Play Riff D 3X
| |---------------------|-------------------|
| |------12-12---x--14--|-------------------|
| |------12-12---x--14--|-------------------|
| |------12-12---x--14--|-------------------|
| |---------------------|-------------------|
|-|---------------------|-------------------|
                        Gtr 1 plays Rhy Fig 1, 4X
                        Gtr 3 plays Riff C, 4X
|-------~~~~~----------|-----------------|-----------------|
|--r-22b------------~~~|~~~~~~~-----19b--|-19-----22b-22b--|
|-------------21b--19--|--------21--21b--|-----------------|
|----------------------|-----------------|-----------------|
|----------------------|-----------------|-----------------|
|----------------------|-----------------|-----------------|



|---22----~~~~~~~~-|------22b--r--22--22-|
|-------22b--------|---19----------------|
|------------------|---------------------|
|------------------|---------------------|
|------------------|---------------------|
|------------------|---------------------|



|-|-22-------------------------|--------------------------|
| |-----22b---19--22p19--------|--------------------------|
| |----------------------19~~~-|--------------------------|
| |----------------------------|-21p19---19---~~~~~~~-----|
| |----------------------------|-------------21-------x---|
| |----------------------------|--------------------------|
|
|
| |----------------------------|--------------------------|
| |-----------14-14----16\-----|---------14--14-----------|
| |-----------14-14----16\-----|---------14--14------16---|
| |-----------14-14----16\-----|---------14--14-----------|
| |----------------------------|--------------------------|
|-|----------------------------|--------------------------|


                                           Play Riff A, 2X
    B5                                     B5
|-|---------------~~~~~-----|------------|
| |-16b----10----6-----7----|------------|
| |-------------------------|-9--7--6--5-|
| |-------------------------|------------|
| |-------------------------|------------|
| |-------------------------|------------|
|
|
| |-------------------------|------------|------------------|
| |-------------------------|------------|----7-7---7---7---|
| |-------------------------|------------|----7-7---7---7---|
| |---9----7----------------|------------|----7-7---7---7---|
| |-------------10-----9--6-|-7--5--4--3-|-2----------------|
|-|-------------------------|------------|------------------|




 Coda
 Riff D          Riff E
 *B5            3X               4X
||--------------||---------------||---7--7--------|
||-----7-7------||-----7-7---9---||---9--9-----7--| Play Riff D 5X
||o----7-7-----o||o----7-7---9--o||---7--7-----7--|
||o----7-7-----o||o----7-7---9--o||---------------|
||--------------||---------------||---------------|
||--7-------10b-||--7------------||---------------|
 *1st time only



|--------------|-----------------|---~~~~---------|
|--------------|----------10-10b-|-10b------------|
|------9b---7--|-~~~~~~----------|----------9b--7-|
|--------------|-9---------------|----------------|
|--------------|-----------------|----------------|
|-7------------|-----------------|----------------|



|--------------12b-|~~~~~----------|-----------------|-------------|
|----------10------|------12b--10--|-12~~~~~---------|-------------|
|--~~~~------------|---------------|-----------9b--7-|--~~~~~~-----|
|-9----------------|---------------|-----------------|-9--------9--|
|------------------|---------------|-----------------|-------------|
|------------------|---------------|-----------------|-------------|



|---------------7-|----------------------~~~-|------------|
|-----------------|-10-10b--10b-r-10b-10b----|-----10-10--|
|-7---------9b----|--------------------------|------------|
|-7---~~~~--------|--------------------------|------------|
|----9------------|--------------------------|------------|
|-----------------|--------------------------|------------|



|--------------|----------------------------||
|-10--~~~~~----|----------------------------||
|----9b--------|-9b-9b-9b-9b-9b----9b-9b----||
|--------------|----------------------------||
|--------------|----------------------------||
|--------------|----------------------------||

Us and Them -

Verse (Guitar 1)

E
|---------5-------|---------5-------|---------7-------|---------7-------|
B
|-----5-----5---5-|-----5-----5---5-|-----7-----7---7-|-----7-----7---7-|
G
|---7---7-----7---|---7---7-----7---|---9---9-----9---|---9---9-----9---|
D
|-0-----0---------|-0-----0---------|-0---------------|-0---------------|
A
|-----------------|-----------------|-----------------|-----------------|
E
|-----------------|-----------------|-----------------|-----------------|


E
|---------9-------|--------9--------|---------7-------|---------7-------|
B
|-----10----10--10|-----10-10-10--10|-----8-----8---8-|-----8-----8---8-|
G
|---10--------10--|---10---10---10--|---7---7-----7---|---7---7-----7---|
D
|-0-----0---------|-0------0--------|-0-----0---------|-0-----0---------|
A
|-----------------|-----------------|-----------------|-----------------|
E
|-----------------|-----------------|-----------------|-----------------|

                           
E |---------5-------|---------5-------|
B |-----5-----5---5-|-----5-----5---5-|
G |---7---7-----7---|---7---7-----7---|
D |-0---------------|-0-----0---------|
A |-----------------|-----------------|
E |-----------------|-----------------|

Pre-Chorus (Guitar 2)
e|--5-------5--4-----------------------------------|
B|--5-------5--4-----------------------------------|
G|--7-------7--6-----------------------------------|
D|--7-------7--6-----------------------------------|
A|--5-------5--4-----------------------------------|
E|-------------------------------------------------|

Chorus (Guitar 1)
"...Forward..."		   "...Died..."
e|--2-2-0-2-----------------2-2-2(h)-3-(p)-2--0----|
B|--3-3-0-3-----------------3-3-3----3-----3--0----|
G|--4-4-4-4-----------------0-0-0----0-----0--0----|
D|--4-4-4-4-----------------0-0-0----0-----0--0----|
A|-------------------------------------------------|
E|-------------------------------------------------|
 |strum as needed..................................|

The saxophone part transcribed to guitar...
(Guitar 2 The entire time)

&#8224; The notes beneath the tab are the notes for saxophone players, or if
you're sick of reading
tabs and want to learn some music theory!

&#8224; Play along w/cd or you'll have no clue what's going on!

&#8224; Also,if something doesn't sound right, try playing on a different
string. I accidentally tabbed parts of it on the wrong string. I think I
corrected all of them, but I can't be certain. Please notify me of this
if you find it. 


First part (Sax intro)

e|-------------------------------------------------|
B|-------------------------------------------------|
G|-------------------------------------------------|
D|---7-7---3/7---9-7------9---5/9------------------|
A|-5-----------------7/12----------9-7-9-----------|
E|-------------------------------------------------|
   D A A   F A   B A E  A B   G B F# E F# 

e|-------------------------------------------------|
B|---------------------/5b~--2---------------------|
G|----------------2------------2-------------------|
D|--------------2----------------------------------|
A|-7b~--------4------------------------------------|
E|----9--------------------------------------------|
   E~ F#	 C# E A     E~  C# A  

e|-------------------------------------------------|
B|-----------------------10------------------------|
G|---4-7-----4-7-9b^9-7-----------9-7--------------|
D|-5-------5---------------------------------------|
A|-------------------------------------------------|
E|-------------------------------------------------|
   G B D   G B D E  E D  A         E D   

Various fills (Sax)

"...and after all, were only ordinary men..."

e|--------10-7-------------------------------------|
B|-/8-8---------8-8-7------------------------------|
G|--------------------/7---------------------------|
D|-------------------------------------------------|
A|-------------------------------------------------|
E|-------------------------------------------------|
    G G   D  B  G G f# D    

"...it's not what we would choose to do..."

e|-----------||------------------------------------|
B|-----------||---------------------10--14-10------|
G|-----------||--------11-9-------------------(12)-|
D|-9(h)12----||-9(h)12------12-9-------------------|
A|-----------||------------------12----------------|
E|-----------||------------------------------------|
 |"choose..."||"to do..."|      
   
   E   G        E   G f# E  D B  A  A   C#  A  (G)   

"...Forward, he cried, from the rear..."

e|-------------------------------------------------|
B|/15~~~~~~~~~~~~~~~~~~~~~~~~~~~~~~~~~~~~~~~~~~~~~-|
G|-------------------------------------------------|
D|-------------------------------------------------|
A|-------------------------------------------------|
E|-------------------------------------------------|
 |let ring|

   D~~~               

"...died..."        "...general sat..."

e|---------/12b------------------------------------|
B|-15(p)12----------/15----------------------------|
G|----------------------16-14-16-------------------|
D|-------------------------------------------------|
A|-------------------------------------------------|
E|-------------------------------------------------|
   D    B   E        D  B  A  B       



"...side to side..."

e|-----------/12b----------------------------------|
B|-15b~~~------------------------------------------|
G|--------16---------------------------------------|
D|-------------------------------------------------|
A|-------------------------------------------------|
E|-------------------------------------------------|
   D      B   E                     

"...who is who..."

e|-------------------------------------------------|
B|-------------------------------------10----------|
G|----------------------9b^9-7-------7-------------|
D|--9--12--9----7/9-12----------7-7----------------|
A|-------------------------------------------------|
E|-------------------------------------------------|
    B  D   B    A B D   E  E D  A A  D A       


e|-------------9b~---------------------------------|
B|----------7-------10--7--10--7-------------------|
G|-------7-----------------------------------------|
D|--5/7--------------------------------------------|
A|-------------------------------------------------|
E|-------------------------------------------------|
    G A  D  F# C#   A   F#  A  F#    


"...haven't you heard..."

e|-------------------------------------------------|
B|-/15b~15------/15b~15-------/15--17--15--13--12~-|
G|-----------16------------16----------------------|
D|-------------------------------------------------|
A|-------------------------------------------------|
E|-------------------------------------------------|
    D   D    B   D   D     B   D   E   D   C   B   

"...listen, son, said the man with the gun..."

e|-------------------------------------------------|
B|--15------17^~^~^~^~------15b~15--12------17-----|
G|------16--------------16---------------14------15|
D|-------------------------------------------------|
A|-------------------------------------------------|
E|-------------------------------------------------|
    D   B   E           B   D   D   B    A  E    A#

Sax Solo (Skipping Piano and talking)

e|--------------------------------|----------------|
B|-10-------7-10-12-10----10------|/12-121415-15-12|
G|----11--7------------11----11-11|----|_(3)_|-----|
D|--------------------------------|----------------|
A|--------------------------------|----------------|
E|--------------------------------|----------------|
   A  F#  D F# A B  B  F# A  F# F#  B  B C# D D  B

e|-------------------------------------------------|
B|-------12-10-------------------------------------|
G|-11-14-------12-/11-------11-9-------------------|
D|--------------------12-14------12-11-9-----------|
A|-------------------------------------------------|
E|-------------------------------------------------|
   F# A  E  A  G   C#  D E  F# E D  C# B

e|-------------------------------------------------|
B|-------------------------------10----------------|
G|-----------------10------9/10--------------------|
D|--7/9/11--11--11-----7/9-------------------------|
A|-------------------------------------------------|
E|-------------------------------------------------|
    A B C#  C#  C# F   A B E  F  A                  
                                                
e|-------------------------------------------------|
B|-14----------------------------------------------|
G|----14-12/14\11-9/10\9----------------9------11--|
D|-----------------------11----(9)-9-12---9-12-----|
A|--------------------------12---------------------|
E|-------------------------------------------------|
   C# A  G  A  F# E F  E C# A   B  B D  E B D  F# 

e|---------------------9-10------------------------|
B|-------------10-7-10-----------------------------|
G|------9/11-7-----------------7-------------------|
D|-9-12---------------------------0----------------|
A|-------------------------------------------------|
E|-------------------------------------------------|
   B D  E F# D A  F# A C# D    D  D               

(All instruments come in)

e|--------0/10~------------------------------------|
B|----0123------12-10-12-10---------9/10--10/12----|
G|-234----------------------11---------------------|
D|-------------------------------------------------|
A|-------------------------------------------------|
E|-------------------------------------------------|
  AA#BBCC#DE D  B  A  B  A  F#      G#A   A  B  

e|---10\9/10\9~-10---------------------------------|
B|-------------------12-10-12----------------------|
G|----------------------------11^9~~~~~~~~~--------|
D|-------------------------------------------------|
A|-------------------------------------------------|
E|-------------------------------------------------|
     D C# D C#  D    B  A  B  F# E                

e|-7~---7-10-9-7-----7-10~-12-10-------------------|
B|-7~-7----------7-8-------------12-11-14-12-11-9--|
G|-9~----------------------------------------------|
D|-------------------------------------------------|
A|-------------------------------------------------|
E|-------------------------------------------------|
   B~ F# B D C# BF#G B  D  E  D  B  A# C# B  A# G#

End Solo

"...without..."        "...fighting's all about..."  

e|------------------|---------------------9-9------|
B|-----7-----7-5----|------------10----10----------|
G|-7-9---7-9-----7-6|-----7/9-11----11-------------|
D|------------------|-7-8--------------------------|
A|------------------|------------------------------|
E|------------------|------------------------------|
   D E F# D EF#E DD#  A A#D E F# A  F# A  C# C#

"...out of the way..."

e|-/14-14-12-14-121212-----------------------------|
B|--------------| (3) |--13b-12-12-12-15-----------|
G|-------------------------------------------------|
D|-------------------------------------------------|
A|-------------------------------------------------|
E|-------------------------------------------------|
    F# F# E  F#  EEE     C   B   B  B  D


Brain Damage-

D
---2--------------2-------
---3------3---------------
---2----------2-----------
---0---0---------------0-
--------------------------
--------------------------


G7/D				
---1--------------1-------	
---0------0---------------	
---0---------0------------	
-------0---------------0--	
--------------------------	
--------------------------	

E/D
-4-----------4-----
-5-----5-----------
-4--------4--------
-0--0-----------0--
-------------------
-------------------

A7
-3--------------
-2--------2-----
-2--2--2-----2--
-2--------------
-0--------------
----------------

Dsus2
--------0--------
--3--------3-----
-----2--------2--
-----------------
-----------------
-----------------

D(8times)

D	   D		     G7/D(2 times)
The lunatic is ...
D	   D		     G7/D(2 times)
The lunatic is ...

D	    D				
Remembering ...

daisy chains and laughs		Got to keep ...
-4-------4--------4-------4----3-----------------3-------------------
-5---5------------5---5--------2-------2---2-----2------------2------
-4-----4----------4-----4------2---2-2---2-------2------2------------
---0-------0--------0-------0--2-----------------2-------------------
---------------------------------0-------------------0-----0-----0---

				 The lunatic  ...
-2-------2---0-------0----------2-------2-----2-------2------1-------1----
-3---3-3---------3-------3------3---3---------3---3----------0---0--------
-2-----2---------------2-----2--2-----2-------2-----2--------0-----0------
-0-0-------0---0---0-------0------0-------0-----0-------0------0-------0--

	     The lunatics  are ...
-1-------1---2-------2----2-------2----1-------1----1-------1----
-0---0-------3---3--------3---3--------0---0--------0---0--------
-0-----0-----2-----2------2-----2------0-----0------0-----0------
---0-------0---0-------0----0-------0----0-------0----0-------0--

The paper holds  their folded  fac....
-2-------2------2-------2-----4-------------4-----4-----------4-----
-3---3----------3---3---------5--------5----------5-----5-----------
-2-----2--------2-----2-------4-----------4----4--4--------4--------
---0-------0------0-------0---0----0-----------0--0--0-----------0--


every day, the  paper boy ...
-3--------------3-----------3-----2-------2---0-------0-----2-----2-0-
-2-------2------2-----2-----2-----3---3-----------3-----3---1---1-----
-2---2---2------2-----2-----2-----2-----------------2-------2-2-------
-2--------------2-----------------0-0---0---0---0---0-------0---------
---0---0---0-------0-----0-----0--------------------------0-----------

		 Chorus;
		 G			    A
		 And if the dam breaks ...
-----0---0------------------------------------------------------
-1-----0------------------0-----------0--------------2----------
----------------------0---0---0---------0------------2--------2-
---4--------------------------------0-----------2----2----0>2---
----------------------------------2----------0--0---------------
-----------0-2---3--------------3---------3---------------------

	     C				      G
	 And if there is no ...
-------------------0-------------------------------------
-------2-------1-----3-1>3-----------------------------0-
-----2---2-------0-----------------0---0---------------0-
---2--------------------------2----2---2--2--------0-----
-0---------0-3--------------3---3--3---3--3--------------
-----------------------------------------------3---------

					    A7
	And if your head explodes ...
-----------------------------------------------------------
--0-------0-----0------------------0--------------0--------
-----0----0--0--0--------------0------0-------0>2---0-0>2--
----------0---------------0-----------------2--------------
--------------------------------------------0--------------
--------3------------3-------------------3-----------------

	     I'll see you in the ...
---------------------------------------0-0-------------------------
--------2------------------1-----------1-1-----------------0-------
----2-----2------------0--------0------0-0-------------------0-----
------2--------------------------------2-2-------------------------
--0---------------3-----------------3----3-----------------------0-
---------------------------------------------------3-----3-----3---


Ah----------		   Ah
-----------------------------------------
-----3----------3---------------2---2----
---2---2---0----4-------0-----2---2---0--
---------4-2--------5--------------------
-2---------2----------------0------------
-----------0-----------------------------


The      lunatic is ...
-2-------2---2---------2-----1-------1---1-------1----
-3---3-------3-----3---------0---0-------0---0--------
-2-----2-----2-------2-------0-----0-----0-----0------
---0-------0-----0--------0----0-------0---0-------0--
------------------------------------------------------
------------------------------------------------------


The   lunatic is ...
-2-------2----2-------2----1-------1---1-------1----
-3---3--------3---3--------0---0-------0---0--------
-2-----2------2-----2------0-----0-----0-----0------
---0-------0----0-------0----0-------0---0-------0--
----------------------------------------------------
----------------------------------------------------


You raise the blade,		   You ...
-2-----------2-------2-------2---4--------------4----4-------4----
-3------3------------3---3-------5--------5----------5---5--------
-2---------2---------2-----2-----4-----------4-------4-----4------
-0----0---------0------0-------0-0-----0-----------0-0-0--------0-

  You re-arrange me ...
-3--------------3------------------2-------2----0-----0--------
-2-------2------2------------2-----3---3--------3-3------------
-2---2-2--------2------2---2-------2-----2------2--------2--2--
-2--------------2------------------0-0-------0--0---0----0--0--
---0---------0-------0----------0------------------------------

    You lock the door		  And	...
-2----------------2---2-----------2----4------------4---4-----------4----
-3--------3-----------3-----3----------5------5---------5-----5----------
-2------------2-------2--------2-------4---------4------4--------4-------
-0----0-------------0-0--0-----------0-0---0------------0--0-----------0-

someone in my head, ...
-3-3----------3------------------2------2---------0--------0--------
-2-------2----2-----------2------3------3---3--------3--------3-----
-2-----2------2-----2--2---------2------2------2--------2--------2--
-2------------2--------2---------0------0------0--------------------
-0---0-----0--0---0----0-----0-----------------0--------------------

-2-----2--0---------2---------------
-1-----------1----------1-----------
-2--2------------2------------------
-0----------------------------------
------------------------------------
----------------------------0--2--3-


repeat chorus

outro: use chords at top.

D	D	G7/D	G7/D	D	D	G7/D	G7/D	D	D
E/D	E/D	A7	A7	D	Dsus2	D	D	E/D	E/D
A7	A7	D	Dsus2










for Pink Floyd Music Publishers



Here it is:
Standard Tuning, Tempo about 132
4=quarter note
8=eight note
a . after a number means add half the value of that note to it
an r before a number equals a rest for the given amount of time

 repeat this part four times then go on
   4.   4   8  4    4.  8  8  8  4     4.   4   8  4    4.  8  8  8  4  
e|-2--------2-------|-2----------2-----|---2--------2-------|-2----------2----
- |
b|-3----3-----------|-3--3-------------|---3----3-----------|-3--3------------
-*|
g|-2-----------------|-2------2---------|---2-----------------|-2------2------
--- |
d|-0------------0---|-0--------------0-|---0-------------0--|-0--------------0
- |
a|--------------------|-------------------|----------------------|------------
-------*|
e|--------------------|-------------------|----------------------|------------
------- |

this part is for all the verses
   "the lunatic      is on the grass...."
   4.   4   8  4    4.  8  8  8  4   4.   4   8  4     4.  8  8  8  4
e|-2--------2-------|-2----------2-----|-1---------1------|--1----------1-----
-
b|-3----3-----------|-3--3-------------|-0----0-----------|--0---0------------

g|-2-----------------|-2------2---------|-0----------------|--0-------0-------
---
d|-0------------0---|-0--------------0-|-0-------------0--|--0--------------0-
--
a|--------------------|-------------------|-------------------|---------------
------
e|--------------------|-------------------|-3----------------|--3-------------
-----





Comments


Popular Pink Floyd tabs & chords
Any Colour You Like Bass Tabs
Apples And Oranges Chords
Echoes Live Chords
Money 1 Chords
Pigs On The Wing Part 1 Chords
The Gold Its In The Chords
High Hopes Live Tabs
Shine On Pt.1 Tabs
Shine On You Crazy Diamond Part 6 Tabs
See Saw Ukulele


Song lyrics



↑ Back to top | Tablatures and chords are parodies/interpretations of the original songs. You may use it for private study, scholarship, research or language learning purposes only
© 2014 AZChords.com Contact us | Privacy policy | DMCA | Add/correct tabs | Request tabs | Top 50 tabs