>
 >
Dark Side Of The Moon

Dark Side Of The Moon Bass Tabs

Pink Floyd - Dark Side Of The Moon chords, tabs, tablatures, lyrics

Guitar lessons | Add/correct | Request | Top 50 tabs Artists:  A B C D E F G H I J K L M N O P Q R S T U V W X Y Z 0-9

Dark Side Of The Moon Bass Tabs – Pink Floyd

CD, Sheet music, Poster

Do you like Dark Side Of The Moon? Share with your friends now
Bass TabsBass Tabs v2TabsTabs v2
SPEAK TO ME (5 String)
G---------------------------------------------------------------------|
D---------------------------------------------------------------------|
A---------------------------------------------------------------------|
E----x--------x--------x--------x--------x--------x--------x--------x-|
B-x--------x--------x--------x--------x--------x--------x--------x----|


BREATHE IN THE AIR
G-----9--------9\---|----------------|
D-------------------|----------------|
A-7--------7-7------|0-------4---5-6-|
E--------7----------|----------------|

G-----9-------9\---|-----------------|
D------------------|--------------7h9|
A-7-------7--------|0-------0-0------|
E------------------|-----------------|

G-----9-------7h9\--|----2-----------|
D-------------------|----------------|
A-7---------7-------|0--------x4-5-6-|
E-------------------|----------------|

G-----9--------9---|----2-----------|
D------------------|----------------|
A-7--------7-7-----|0--------x4-5-6-|
E--------7---------|----------------|

G-----9---9---7-9--|----2-------------|
D------------------|-------------7/-9-|
A-7----------------|0--------0-0------|
E------------------|------------------|

G-----9----------9--|----2------------|
D---------9---------|------------7\---|
A-7---------7--7----|0-------0-0----5-|
E-------------------|-----------------|

G-----9-------9\---|-----------------|
D------------------|----7--------7---|
A-7-------7-7------|0--------0-0---5-|
E------------------|-------0---------|

G-----9---------7h9-|-----------------|
D-------------9-----|----7---7-5------|
A-7-------7-7-------|0-----------7-5--|
E-------------------|-----------------|

G-----------------|-----2-h4-2-h4-2-----|
D-------------5---|-----------------4---|
A-3------x3-3---3-|2------------------2-|
E-----------------|---------------------|

G------------------|----------------|
D-3--------3-3---3-|5-----5---------|
A--------3---------|--------5---6---|
E------------------|----------------|

G-----9--------9-7h9-|-----------------|
D--------------------|7------7---------|
A-7--------7-7-------|---------0-4-5-6-|
E--------7-----------|-----------------|

G-----9--------9-7h9-|--------------------|
D--------------------|7------7--------7h9-|
A-7--------7-7-------|---------0--0-7-----|
E--------------------|--------------------|

G---------9-------|-----------------|
D-----------------|7----------------|
A-7------------7--|--------0---4-5--|
E-----------------|-----------------|

G-----9-------9\---|-----------------|
D------------------|7-----------7-5--|
A-7-------7--------|--------0--------|
E------------------|-----------------|

G-------------------|-----------------|
D--------------5\---|-----------------|
A-3--------3-3------|2--------2-2-----|
E--------3----------|-------2---------|

G-----------------|----------------|
D-----------------|----------------|
A-----------------|--------5---6---|
E-1------x1-1-----|3-----3---------|

G-----9------7h9----7h9-|-----------------|
D----------9------9-----|7------7---------|
A-7---------------------|---------0-4-5-6-|
E-----------------------|-----------------|

G-----9-------9-7h9-|------------------|
D-------------------|7-----------------|
A-7-------7-7-------|--------0-4-5-5-6-|
E-------------------|------------------|

G-----9--------9\---|----------------|
D-------------------|7---------------|
A-7--------7-7------|--------0-4-5-6-|
E--------7----------|----------------|

G-----9----9-7-------|----------------|
D--------------9-----|----7---7-5-----|
A-7------7-------7\--|0-----------7-5-|
E--------------------|----------------|

G-------------------|-----------------|
D---------------5\--|-----------------|
A-3--------3-3------|2--------2-2-2-2-|
E--------3----------|-------2---------|

G------------------|----------------|
D------------------|5-----5-0---1---|
A------------------|----------------|
E-1------x-1-1-----|----------------|

G---------------------------------|
D-2-------------------------------|
A---------------------------------|
E---------------------------------|


ON THE RUN
G---------------------|
D---------------------|
A-----------7-8-9-10--| Repeat As Necessary
E--7-8-9-10-----------|


TIME
G---x----x----x----x----x----x----x----x----x----x----x-|
D-x----x----x----x----x----x----x----x----x----x----x---|Repeat
A-------------------------------------------------------|As
E-------------------------------------------------------|Necessary

G----------------------------------------------------------------------|
D----------------------------------------------------------------------|
A----------------------------------------------------------------------|
E-0--------------2-----------0-----------2--------0--------2--------0--|

G----------------------------------------------------------------------|
D----------------------------------------------------------------------|
A------------------------0---------------------------------------------|
E-2-----------2--------------------0--------2--------------------------|

Verse
G--------------------------0--1--2--------------2--------2--2----------|
D-----4--4-----2--4-----4-----------------2--2--------2-----------2---2|
A--------------------------------------0-------------------------------|
E----------------------------------------------------------------------|

G----------------------------------------------------------------0-1-2-|
D-0--2-----0--2--2-----4-----4--------------------4--4-----2--4--------|
A-------------------------------4--4--------4--4-----------------------|
E-------------------------------------2--2-----------------------------|

G-------2--------------------------------------------------------------|
D----2--------2--------2-----2-----2--2-----2--3-----4-----------------|
A-0--------------0-----------------------------------------4--4--------|
G----------------------------------------------------------------2-2-4-|

G----------------------------------------------------------------------|
D---------0-----0--0-----------------2--0-----0--0--------------------0|
A------------------------0-----0--0--------------------0-----0--0------|
E-2--------------------------------------------------------------------|

G-------2-------------------------------------------------------------|
D-0--0-----0--------------------------------------------------2--3----|
A----------------4-----4--4-----2-----2--2-----------------2----------|
E----------------------------------------------0-----0--4-------------|

Guitar Solo
G-------------------------0--1--2--------------2--------2--2-----------|
D----4--4-----2--4-----4--------------------2--------2--------------2-0|
A-------------------------------------0--4-----------------------------|
E----------------------------------------------------------------0-----|

G----------------------------------------------------------------------|
D-2-----2--3-----4--4--------------------4--4--------------------------|
A----------------------4--4--------4--4--------4--4-------------------0|
E----------------------------2--2--------------------2-----2--3-----4--|

G----2-----------------------2-----------------------------------------|
D-2--------2--------------------2--2-----0--2-----2--3--4---4----------|
A-------------0-----0--0--------------------------------------4--4----4|
E------------------------------------------------------------------2-2-|

G-------------------------0--1--2-----------------2-----2--2-----------|
D---4--4-----2--4-----4-----------------------2-----2-----------2---2-2|
A-4-----------------------------------0--4-----------------------------|
E----------------------------------------------------------------------|

G-----------------------------------------------------------------0-1-2|
D-2---2--3--4---4--------------------------4-----4-----2--4-----4------|
A------------------4--4-----------0-----4------------------------------|
E------------------------2-----2---------------------------------------|

G----------2-----------------2-----------------------------------------|
D-------2-----x--------2--4-----2-----2-----0--2-----2--3-----4--------|
A-0--4-----------0--4---------------------------------------------4--4-|
E----------------------------------------------------------------------|

G----------------------------------2-----------------2------------2----|
D----------------------0-----0--0-----0-------------------------------0|
A-4-----------0--2--4--------------------------0-----------0--0--------|
E----2-----2-----------------------------------------------------------|

G-------------------------------2-----------------2--------------------|
D-0--0-----2--------------------------0-----0--0-----0-----------------|
A----------------0-----0--0--------------------------------4-----4----4|
E----------------------------------------------------------------------|

G-----------------------------------------------|
D-------------------2--------2---------------2--|
A-2-----2--2------------------------------2-----|
E-------------------------------------4---------|

G----------------------------------------------------------------------|
D----------------------------------------2--------2--2--------2--------|
A-2--------2--------2--------2-----------------------------------------|
E----------------------------------------------------------------------|


THE GREAT GIG IN THE SKY
        Bm                  F                 Bb
G-----------------| |---------------| |------------------|
D-----------------| |---------------| |------------------|
A-------2---------| |---------------| |-------1----------|
E-----------------| |--------1------| |------------------|
       F/A                                      Gm7
G------------------|-------------------|--------------------|
D------------------|-----------------3-|--------------------|
A------------------|-------------------|--------------------|
E-------2----------|-------------------|---------3----------|
                                 C9
G---------------------|---------------------|-------------------------|
D---------------------|---------------------|-------------------------|
A---------------------|---1-------3---------|----------3-----3--------|
E---------3-----3-----|---------------------|-------3-----------------|
           Gm7                                            C9
G---0------------------|-----------------------|---------------------|
D----------------------|-----------------------|-----0---------------|
A------3---------------|-----------------------|--------1--3---------|
E-----------3----------|---------1----2------1-|---------------------|
                                   Fmaj7
G---------------------|--------0--------------|---------------------|
D---------------------|---2---------3---------|---------------------|
A----------3----3-----|-----------------------|-------3-------------|
E-------3-------------|-----------------------|----------1----1-----|

G---------------------|----------------------|---------------------|
D---------------------|----------------------|---3-------1---------|
A---3-------1---------|----------1-----1-----|------1--------------|
E------1--------------|----------------------|---------------------|
                                     Cm7
G-------------------------|----------------------|---------------------|
D-----------1----1-----1--|----------------------|---------------------|
A-------1-----------------|-----------3----------|----------3----------|
E-------------------------|----------------------|---------------3----3|
                                 F7
G----------------------|---------------------|--------------------|
D---5-------3----------|---------------------|--------------------|
A----------------------|----------0----------|---------1----------|
E----------------------|-------3-------------|--------------------|
                             Bbmaj7                Ebmaj7
G-------------------|--------------------|---------------------|
D-------------------|--------------------|---------------------|
A-------------------|---------1----------|----------1----------|
E-------------------|--------------------|---------------------|
         Bb Bb                               (vocals)  Gm7
G-----------------------|---------3----------|--------------------|
D-----------------------|--------------------|--------------------|
A--------1---1----------|--------------------|--------------------|
E-----------------------|--------------------|----------3---------|

G-----------------------|-------------------|----------------0---5---|
D-----------------------|-------------------|----------------4-------|
A-----------------------|-------------------|---------3--------------|
E-------3--3----3----1--|-------------------|------3-----------------|

G---0----0------------|---------0----0---------|--------------------|
D---------------------|-----0-------------3----|--0-----------------|
A---3-----------------|------------------------|-------3------------|
E---------------------|------------------------|--------------------|

G-------------------------|---------------------|---------------------|
D-----------------------3-|------5--------------|-----3---------------|
A----3--3-----3------5----|-------------------5-|--------------5------|
E-------------------------|---------------------|---------------------|

G---------------------|-----------------------------|------------------|
D---------------------|-----------------------------|---5--------------|
A----3----------------|-----3------3------5----5----|-----------------5|
E-------------------3-|-----------------------------|------------------|

G------------------0-----------|-------------------|---------------0---|
D---5------5----3-------0------|-------------------|------------3------|
A----------------------------3-|-------------------|----3----5---------|
E------------------------------|-------------------|-------------------|

G------------------0---|-----0-------------------|---------------------|
D----------------------|----------3----0---------|---------------------|
A----------------------|---------------------3---|----------------3----|
E---------------3------|-------------------------|---------------------|

G----------------------|------------------0----|-----------------------|
D----------------------|-----------------------|--3----0---------------|
A----3------------5----|-----------------------|----------3--1----3----|
E----------------------|-------------3---------|-----------------------|

G------------------|----------------0-----|--------------0-----0--|
D------------------|-------0--------------|-----------0-----------|
A------------------|----------4-----------|-----------------------|
E------------------|----------------------|-----------------------|

G-----------------------|-----5-------------------|--------------------|
D----3----0-----------5-|------------5------------|-----------0--------|
A--------------3--------|---------------3-----3---|-----3--4-----------|
E-----------------------|-------------------------|----------------3---|

G---------------------|-----------------------|----------------------|
D---------------------|-----------------------|----------------------|
A---------------------|--------1-----3--------|--------------------3-|
E-----------3------3--|-----------------------|--------------3-------|

G-----------0---------|-------0-------------|---------------------|
D-----2--2------------|------------3--------|---------------------|
A---------------------|---------------------|--5------3-----------|
E---------------------|---------------------|---------------------|

G--------------------------|-----------------------|-------------------|
D--------------------------|---------0--------0----|-------------------|
A-------2--3----3------3---|---4-------------------|-------4------4---3|
E--------------------------|-----------------------|-------------------|

G----------------------|--------------------|--------------------|
D--------4-------------|--------------------|--------------------|
A--4--4----------------|------2-------------|------2-------------|
E----------------2-----|--------------------|--------------------|

G---------------------|-----4--------------|--------------------|
D------------------4--|--------------------|--------------------|
A-----2---------------|--------------------|------2-------------|
E---------------------|--------------------|--------------------|

G----------------|--------------|---------------------|----------------|
D----------------|--------------|-----------------3---|----------------|
A-------------2--|--------------|-------------3-------|----------1-----|
E----------------|-----1--------|---------------------|----1-----------|

G----------3-------------|----------------------|-----------2----------|
D----3--------3----------|---3------------------|-------3--------3-----|
A---------------------1--|-------1----0---------|----------------------|
E------------------------|----------------------|----------------------|

G----------------------|------------0--------|----------------------|
D----------------------|-------0-------------|-----0----------------|
A---3--0---------------|---------------------|-------------3--------|
E------------3---------|---------------------|--------3-------------|

G------------------------|----------------------|------------0--------|
D------------------------|-------0--------------|-------0-----------0-|
A----------2--3------3---|----3-----------------|---------------------|
E------------------------|--------------3-------|---------------------|

G----------------------|-------0----5----------|-----------------------|
D------3--0------------|---------------------5-|-------------0--3------|
A--------------3-------|-----------------------|------3---4------------|
E---1------------------|-----------------------|-----------------------|

G--------------------|----------------------|-----------------------|
D--------------------|---3------------------|-----------------------|
A----------------3---|--------------1-------|-------------1-----1---|
E---1----------------|------1---------------|-----------------------|

G---------|------------------|-----------|------0----|------------|
D-----1---|--------1------1--|-----------|-----------|---------3--|
A---------|----1-------------|------3----|-----------|------------|
E---------|------------------|-----------|-----------|--3---------|

G--------------------|------------0-------|---------------------|
D--------------------|--------------------|-------------3-------|
A------------3-------|--------------------|---------------------|
E--------------------|--------------------|------3--------------|

G-----------------------|---------2----3-------|----------------------|
D-----------------------|------3---------------|------3-------1-------|
A---------------0-------|----------------------|---------1------------|
E----------3------------|----------------------|----------------------|

G--------------------|-------------3-------|--------------------|
D--------------------|----------3----------|--------------------|
A----1------------1--|---------------------|------------1-------|
E--------------------|---------------------|--------------------|

G---------------------|--------------------|-----0----------------|
D---------------------|------------------0-|----------------------|
A---------------------|--------------------|--------------3-------|
E-------------3-------|--------------------|----------------------|

G---------------------|-------------------|---------------------|
D---------------------|-------------------|------------------0--|
A------------3-----3--|-------------------|---------------------|
E---------------------|------------3------|---------------------|

G----0----------------|-----------------------|-------------------|
D---------------------|-----------------------|-------------------|
A--------------3------|--------------3-----3--|-------------------|
E---------3-----------|-----------------------|------------3------|

G-------------0------|-----------------------|---------------------|
D--------0-----------|------0----------------|---------------------|
A--------------------|----------------3------|------------3-----3--|
E--------------------|---------3-------------|---------------------|

G--------------------|-------------0------|----------------------|
D------0-------------|--------0-----------|------0---------------|
A--------------------|--------------------|---------------3------|
E-------------3------|--------------------|----------3-----------|

G-----------------------|----------------0------|-------------------|
D-----------------------|--------0--------------|------------3------|
A--------------3-----3--|-----3-----------------|-------------------|
E----------3------------|-----------------------|-------------------|

G---------------------|----------------------|--------------------|
D---------------------|----------------------|--------------------|
A-----5--------3------|--------------3----3--|--------------------|
E---------------------|-----------3----------|-------------3------|

G-----------0------|-------------------|-------------------|-------0---|
D------0-----------|------0------------|-------------------|-----------|
A------------------|-------------3-----|----------3------3-|-----------|
E------------------|-------------------|-------------------|----------3|


MONEY
Intro and Verse
G------4----------------------|
D--------4---------------0----|
A---2-------2------0--2-------|
E--------------2--------------|

Fill 1
G-----------------------------|
D-----------------------0-----|
A---2--0--2-------0--2--------|
E--------------2--------------|

Bridge
G--------------------------------------------------|
D---4---4--------------4--3--2-------------0-------|
A----------4-----0--4----------2-----0--2-----2----|
E-------------2------------------0-3---------------|

Variation
G-----9-------------------|
D-------9------------5----|
A---7-----7----5--7-------|
E-----------7-------------|

G------------------|
D------------------|
A---0-2-2-5-4-3----|Repeat As Necessary
E------------------|

G------------------|
D------------------|
A---0-7-7-6-5-4----|Repeat As Necessary
E------------------|

G------------------|
D------------------|
A---0-2-2-5-4-3----|Repeat As Necessary
E------------------|

G---------------------|
D-----4-3-2-----4-3-2-|
A---------------------|
E---2-------2-2-------|

G---5-3-2-----------|
D---------5-4-3-2---|
A-----------------5-|
E-------------------|

Outro
G----------------------------|
D------2-----2-----2-----2---|To Next Song
A---0-----0-----0-----0------|
E----------------------------|


US AND THEM
Intro and Verse
G-------------------------|
D-------------------------|
A----------12--12---12----|
E---10--------------------|

Fill 1
G--------------------------------|
D--------------------------------|
A---7/12---12-12--12-12---12\----|
E--------------------------------|

Chorus
G------------------------------------------|
D------------------------------------------|
A--------------3---2-----------------------|
E---3-----3-------------1------1/3----3----|

G---------------------------------------------|
D---------------------------------------------|
A---2--3-------------2---0--------------------|
E---------3-----3-------------1------1/6----6-|


ANY COLOUR YOU LIKE
G---|--------------5h7-----|-------------------------|--------7--------|
D---|----------------------|--------5--------5h7-----|-----------------|
A---|--5-------------------|-------------------------|--5--------------|
E---|----------------------|--3----------------------|-----------------|

G---------------------------|--------7--------5h7-----|----------------|
D---------5-----------------|-------------------------|--------5----5h7|
A---------------------2-----|--5----------------------|----------------|
E---3--------------3--------|-------------------------|--3-------------|

G------|--------7--------7--------|--------------------------|--------7|
D------|--------------------7-----|--------5-----------5-----|---------|
A------|--5-----------------------|--------------------------|--5------|
E------|--------------------------|--3-----------3--3--------|---------|

G------5h7-----|-------------------------------|--------7-----------7--|
D--------------|--------5----------------------|-----------------------|
A--------------|-----------------------2h3-----|--5--------------5-----|
E--------------|--3-----------3--3--3----------|-----------------------|

G---------------------------------|--------7-----------7\---|----------|
D---------5-----5-----------------|-------------------------|--------5-|
A------------------5--------2-----|--5-----------5----------|----------|
E---3--------------------3--------|-------------------------|--3-------|

G---------------|--------7-----------7-----|---------------------------|
D---5-----7-----|--------------------------|--------5-----5------------|
A---------------|--5-----------5-----------|-----------------------2--3|
E---------------|--------------------------|--3--------------3---------|

G---------7-----------7\---|--------------------------|--------7----5h7|
D--------------------------|--------5--------5h7p5h7--|----------------|
A---5--------------5-------|--------------------------|--5-------------|
E--------------------------|--3-----------------------|----------------|

G------|-----------------------------|--------7-----------|------------|
D------|--------5--------------------|--------------------|--------5---|
A------|--------------5--------2--3--|--5-----------------|------------|
E------|--3--------------3-----------|--------------------|--3---------|

G----------------|--------7--------7--------|--------------------------|
D-----------5/7--|--------------------7-----|--------5--------------5/7|
A------5---------|--5-----------------------|--------------------5-----|
E---3------------|--------------------------|--3-----------3-----------|

G---|--------7-----------|-------------------------|--------7----------|
D---|--------------------|--------5--------5h7-----|------------------6|
A---|--5-----------------|-------------------------|--5----------------|
E---|--------------------|--3----------------------|-------------------|

G--------------------------|--------7-----|---------------------|------|
D---5-----5--------5h7-----|--------------|--------5-----(5)h7--|------|
A--------------------------|--5-----------|---------------------|--5---|
E--------------------------|--------------|--3------------------|------|

G------7-----------|-------------------------|--------7------|---------|
D------------------|--------5--------5h7-----|---------------|-------5-|
A------------------|-------------------------|--5------------|---------|
E------------------|--3----------------------|---------------|--3------|

G------------|--------7-----------|---------------------|--------7--7--|
D------------|--------------------|--------5-----5h6h7--|-------------7|
A------------|--5-----------------|---------------------|--5-----------|
E------------|--------------------|--3------------------|--------------|

G------|-------------------|--------7-----5h7-----|--------------------|
D------|--------5------/12\|----------------------|--------5-------5-7-|
A------|-------------------|--5-------------------|--------------------|
E------|--3----------------|----------------------|--3-----------3-----|

G---|--------7-------------7--------|--------------------------|------7|
D---|-------------------------7-----|--------5-----------------|-------|
A---|--5-----------3/5--------------|-----------------2--3-----|--5----|
E---|-------------------------------|--3-----------3-----------|-------|

G---------------7-----|-------------------------|--------7--------5h7--|
D---7--------7--------|--------5-----------5/7--|----------------------|
A------5--------------|-------------------------|--5-------------------|
E---------------------|--3-----------3--3-------|----------------------|

G---------------------------|--------7--------5h7-----|-------------/12|
D---------5--------5--7-----|-------------------------|--------5-------|
A---------------------------|--5----------------------|----------------|
E---3-----------------------|-------------------------|--3-------------|

G---12-----10p9-----|--------7--------5h7-----|------------------------|
D-------------------|-------------------------|--------5---------------|
A-------------------|--5----------------------|--------------------2--3|
E-------------------|-------------------------|--3--------------3------|

G---------7--------(5)h7-----(5)h7--|--------------------------|------7|
D-----------------------------------|--------5-----------------|-------|
A---5-------------------------------|--------------------3--4--|--5----|
E-----------------------------------|--3--------------3--------|-------|

G------5h7-----|----------------------|--------7--------------7--|-----|
D--------------|--------5--------5h7--|--------------------------|-5---|
A--------------|----------------------|--5--------------5--------|----5|
E--------------|--3-------------------|--------------------------|-----|

G------------------|--------7-----------7\---|----------------------|--|
D------------------|-------------------------|------5-----------5/7-|--|
A---------2-----3--|--5-----------5--5-------|----------------------|-5|
E---3--------------|-------------------------|--3---------3--3------|--|

G------7--------5h7-----|--------------------------|--------3---------3|
D-----------------------|--------5-----------5-----|-------------------|
A-----------------------|--------------------------|--1-----------1--1-|
E-----------------------|--3-----------3--3--------|-------------------|

G---|--------------14--14\---|--------8-----------8--8--|--------------|
D---|------------------------|--------------------------|--------------|
A---|--0---------------------|--6-----------6-----------|--8----------3|
E---|------------------------|--------------------------|--------------|

G---------|-----------------|
D---------|-----------------|
A---4-----|--5--------------|
E---------|-----------------|


BRAIN DAMAGE
G-----|-----|-----|--------|--------|------------|--------|-----------|
D-----|-----|-----|----7---|--------|---------7--|--------|---------7-|
A--5--|-----|-----|--------|---5----|--5--5------|---5----|--5--5-----|
E-----|-----|-----|--------|--------|------------|--------|-----------|

Verse
G--------|-------------|----------|----------------|----------|-------7|
D--------|----------7--|--5---5---|--5---------0h2-|--0----0--|--0--0--|
A---5----|--5--5-------|----------|----------2-----|----------|--------|
E--------|-------------|----------|-------3--------|----------|--------|

G----------|-------------|-----------|--------------|-----------|------|
D--5----5--|--5----------|-----------|--------------|-----------|-----7|
A----------|----------2--|--5-----5--|--5---5----5--|--5-----5--|-5-5--|
E----------|-------3-----|-----------|--------------|-----------|------|

G-----2---|-----------|----------|---------2--|
D---------|-----------|--0-------|--0--0------|
A--0------|--0-----4--|----------|------------|
E---------|-----------|----------|------------|

Chorus
G--------------|--7---|--7------------4--|----------|---------|--------|
D-----------7--|------|--------4---7-----|-------5--|------5--|------7-|
A--5---5-------|------|-----5------------|----------|---------|--------|
E--------------|------|------------------|--3-------|--3------|--5-----|

G-----------------|----------|------------------|-----------|----------|
D------7--7----7--|----------|------------------|--5---5-5--|-5-2-2-3-3|
A-----------------|--3----3--|--3--3---3--3--5--|-----------|----------|
E--5--------------|----------|------------------|-----------|----3---3-|

Outro
G-----------|------------|-----|-------|-------|--------------|
D-----------|------------|--5--|-------|--2----|--------------|
A--3---3----|--3----3h5--|-----|--2----|-------|--0--0--2--4--|
E-----------|------------|-----|-------|-------|--------------|

G----------|----------|----------|---------------------|---------|-----|
D----------|----------|-------5--|----------------0h2--|---------|-----|
A--5----5--|--5--5----|----------|-----5-------2-------|--5---5--|-5-5-|
E----------|----------|--3-------|--3-------3----------|---------|-----|

G---------|-------|------|------|------|---------|------2--|-----------|
D------5--|-------|--0---|--0---|--2---|--2--2---|---------|-----------|
A---------|-------|------|------|------|---------|-0-------|--0--0--2-4|
E--3------|--3----|------|------|------|---------|---------|-----------|

G------|--------|------|---------|------|---------2--|-------2--|
D------|--------|------|---------|--2---|--2--2------|----------|
A--5---|--5-----|--5---|--5--5---|------|------------|--0-------|
E------|-----5--|------|---------|------|------------|----------|

G--------------|-----------|--------7--|
D--------------|-----------|-----------|
A--0--0--2--4--|--5----5---|--5--------|
E--------------|-----------|-----------|


ECLIPSE
G---------|--7----------|---------|-----------|-----------|-3----------|
D---------|----7--------|---------|-----------|-----------|----3-0h3p0-|
A--5------|-------5--0--|--3------|--3--3--3--|--1--1--1--|-----------1|
E---------|-------------|---------|-----------|-----------|------------|

G--------|--------------|--------|-------------|--------|-----5--------|
D--------|--------------|--------|-------------|--------|--------------|
A-0-----0/12--12--12--12\5-------|--5---5---5--|--3-----|--3-----3--3--|
E--------|--------------|-----5--|----5---5----|--------|--------------|

G--------|------3-------|------------|---------------|-------|---------|
D--------|----3---3-----|------------|---------------|-------|---------|
A-1------|----------1---|--0---/12\--|-/12\----------|--5----|--5--5--5|
E--------|--------------|------------|---------------|-------|----5--5-|

G-------|----5-------|-------|--------------|------------------|
D-------|--------5---|-------|--------------|------------------|
A--3----|--3-------3-|--1----|--1-1-1-1-1-1-/12-12-12-12-12-12-|
E-------|------------|-------|--------------|------------------|

G---------------------|--------|--7----------|-----------|--5---------|
D---------------------|--------|----7--------|-----------|----5-------|
A--12-12-12-12-12-12--|--5-----|-------5--5--|--3--3--3--|--------3-3-|
E---------------------|--------|-------------|-----------|------------|

G-----------|-----------|-----------|------------|---------|-----------|
D-----------|-----------|-----------|------------|---------|-----------|
A--1--1--1--|-1-1----1--|--0----0---|--0--4-/-12-|--5------|--5--5-----|
E-----------|-----------|-----------|------------|---------|-----------|

G-------------|--------------|------------|-------------|
D-------------|--------------|------------|-------------|
A--3----------|--3---3---3---|--1---------|---1-1-1-1-1-|
E----------3--|----3---3-----|------------|-------------|

G--------|----------------------|------------|-----------|-------------|
D--------|----------------------|------------|-----7-----|-------------|
A--0-----|-4/12-12-12-12-12-12--|--5---------|--5-----5--|--3-3-3-3-3--|
E--------|----------------------|---------5--|-----------|-------------|

G------------|---------|------------|---------------|------------------|
D------------|---------|------------|---------------|------------------|
A-3-3--3-3-3-|-1--1--1-|-1--1----1--|-0-0-0-0/12-12-|-12-12-12-12-12-12|
E------------|---------|-------1----|---------------|------------------|

G-------------|------------|-----------|------------|-------------|
D-------------|------------|-----------|------------|-------------|
A--5--5--5----|--5--5---5--|--3--------|--3---3--3--|--1--1--1-1--|
E----------5--|-------5----|---------3-|----3-------|-------------|

G-----3-----|-----------|----------------------|-----------|--7--------|
D--3-----3--|-----------|----------------------|-----------|----7------|
A-----------|--0--0--0--|--12-12-12-12-12-12\--|--5--5--5--|-------5--5|
E-----------|-----------|----------------------|-----------|-----------|

G-------------|-----------|----------|----------|--2-----|-(2)---------|
D-------------|-----------|----------|----------|--0-----|-(0)---------|
A--3-------3--|--3--3--3--|--1-------|--1-------|--------|-------------|
E-------------|-----------|----------|----------|--------|-------------|

G---------------------------------------------------------------------|2
D---------------------------------------------------------------------|T
A---------------------------------------------------------------------|I
E----x--------x--------x--------x--------x--------x--------x--------x-|M
B-x--------x--------x--------x--------x--------x--------x--------x----|E
                                                                       S





Comments


Popular Pink Floyd tabs & chords
Astronomy Domine Bass Tabs
Fearless Chords
Tide Is Turning Chords
Dogs (Solo) Tabs
Have A Cigar (Solo) Tabs
One Slip Tabs
The Narrow Way Part 2 Intro 1 Tabs
Young Lust 1 Tabs
Let There Be More Light Ukulele
One Of My Turns Ukulele


Song lyrics



↑ Back to top | Tablatures and chords are parodies/interpretations of the original songs. You may use it for private study, scholarship, research or language learning purposes only
© 2014 AZChords.com Contact us | Privacy policy | DMCA | Add/correct tabs | Request tabs | Top 50 tabs