» » »

Crying Song Bass tabs (ver.1)

Artists:  A B C D E F G H I J K L M N O P Q R S T U V W X Y Z # 

Crying Song Bass tabs (ver.1)

Pink Floyd
Rating:
0/5 (0 votes)

Hard to play? Try these video lessons and learn fast.
                Crying Song
Pink Floyd



Tuning: Standard


3. Crying Song (Roger Waters)

Intro (Fade In)
G|---------------|------------------|
D|---------------|-----------5--7---| 
A|-5----5*-5-5---|-5----5-5---------|
E|---------------|------------------|

*Roger only includes this note in the very beginning of the song.

Verse
G|-------------|------------|-----------------|------------|
D|-------------|------------|--------------7--|------------|
A|-5----5-5----|-5----5-5---|-5----5-5--------|-5----5-5---|
E|-------------|------------|-----------------|------------|
      
G|---------------|--------------|-------------|
D|---------------|--------------|-------------|
A|-5-----5*-5*---|--4**---------|-------------|
E|---------------|--------------|--3---2--0---|

G|-----------------------|
D|-----------------------|
A|-4----5----6----7----8-|
E|-----------------------|

*Only include on the first time.
**Only include on the third time.

Solo
G|--------------|------------|-----------------|------------|
D|--------------|------------|--------------7--|------------| (Fade Out)
A|-5---5*-5-5---|-5----5-5---|-5----5-5--------|-5----5-5---|
E|--------------|------------|-----------------|------------|

*Alternate between having it in and not.
            
Hard to play? Try these video lessons and learn fast. | Correct




comments powered by Disqus
↑ Back to top | Tablatures and chords are parodies/interpretations of the original songs. You may use it for private study, scholarship, research or language learning purposes only