» » »

Comfortably Numb (Solo Ver ) Tabs (ver.3)

Artists:  A B C D E F G H I J K L M N O P Q R S T U V W X Y Z # 

Comfortably Numb (Solo Ver ) Tabs (ver.3)

Pink Floyd
Rating:
0/5 (0 votes)

Tabs too difficult? Try these video lessons and learn fast.
                "(4)
david gilmour uses some sort of pedal during this solo to get the notes to hold on
mostly all of the faster parts, i didnt have the pedal so i just wrote it out without
it. i have written out how far to bend the strings for each bend, if there is nothing
mentioned it is simply a full bend. david gilmour is a crazy awesome guitarist


                 bend release         1/4bend
E|-------------------------------------------------------------|
B|---------------------------------------------------10--10----|
G|-12--9-9b-------9b----7-79-9v---7----7-------9/11----11------|
D|-----------------------9---------9-9-------------------------|
A|-------------------------------------------------------------|
E|-------------------------------------------------------------|


     1 1/2 release             1/2 bend   release
E|----------------------10-------------------------------------|
B|-12--12b--------10-12-------7--9--9b-7-----------------------|
G|--------------------------------------9--9b--7---------------|
D|----------------------------------------------9--------------|
A|-------------------------------------------------------------|
E|-------------------------------------------------------------|



E|-------------------------------------------------------------|
B|--10p7------------------------------7------------------------|
G|-------9-9b-9-7--------------7-7--9--------------------------|
D|----------------9v--------79------------9p7-9v---------------|
A|-------------------------------------------------------------|
E|-------------------------------------------------------------|


         half bend  12s and 10s
E|----7--9--9b------------------------------------------7------|
B|---7-7------------12p101210b------10h-7-----------7-7---10p7-|
G|--x-------------------------------------9--------------------|
D|-------------------------------------------------------------|
A|-------------------------------------------------------------|
E|-------------------------------------------------------------|

bend release second one
            1/4 bend
E|------------------------------------------------------7------|
B|----------------------------------------------------7----10p7|
G|-9b-9b-7---7b----------------------7-7-7v------x-9b----------|
D|---------9-----9-7-------------------------------------------|
A|-------------------9-8-7-5---5v------------------------------|
E|---------------------------7---------------------------------|



E|-------------------------------------------------------------|
B|-------------------------------------------------------------|
G|-9-9b-7-9-7--------------------------------------------------|
D|-------9----9p7------------------------7-7-7-----------------|
A|---------------9--975-7p5---5v--7-5-79-----------------------|
E|--------------------------7----------------------------------|


                                                  release   1/4
E|---------------7------------------------7--------------------|
B|-------------7---10---7---------------7---10p7---------------|
G|-----7---7-9b-------9b--7--7v--7-0-9b----------9-9b-7---9-7b-|
D|--97---9v---------------------------------------------9------|
A|-------------------------------------------------------------|
E|-------------------------------------------------------------|



E|-------------------------------------------------------------|
B|-------------------7----------------------7-77--------x7-7-7-|
G|-------------------7-------------------x9-7-77--------x7-7-7-|
D|-9-7---------------7---9v------------9-x9-7-77-12-----x7-7-7-|
A|-----9-8-7-5---5p0-------------------------------------------|
E|-------------7-----------------------------------------------|



E|-----------------------------7--------------------7--------|
B|-----7-------------------------10p7-10b---------7---10p7-----|
G|-----7---9b---7-7-9-9b-----------------------9b----------9b--|
D|-9v----7-------9---------------------------------------------|
A|-------------------------------------------------------------|
E|-------------------------------------------------------------|


   release                                                  1/2
E|-------------------------------------------------------------|
B|---------------------------------------------------7------7b-|
G|-9b--7-9p7---7---------------------------7-------7-7------7b-|
D|-----------9---9p7-9p7---7------------9--7----979--7----x-7b-|
A|-----------------------9---9-8-7-----------------------------|
E|---------------------------------10-7------------------------|



E|-------------------------------------------------------------|
B|-------------------------7---------------7---------------7---|
G|-----------79h0-9v--97---7--97-----------7--97-----------7---|
D|-7--7--7h9-------------9-------9-7--97h9-------9-7--97h9-----|
A|-------------------------------------------------------------|
E|-------------------------------------------------------------|


                   ^^    ^     slide out
E|-----------------------------7---17-17-17b--17b----19--21----|
B|----7--7--7---7-----7----7-7-7-------------------------------|
G|-97-7--7-x7---7--77-7--7-7-7-7-7\----------------------------|
D|---9---7-x--x----------------7-7\----------------------------|
A|-------------------------------------------------------------|
E|-------------------------------------------------------------|


al bends 1 1/2      release          
E|--21b----21b---21-21b----21b--21b--21b--1921--19--19-19\-----|
B|---------------------------------------------------------x17-|
G|-------------------------------------------------------------|
D|-------------------------------------------------------------|
A|-------------------------------------------------------------|
E|-------------------------------------------------------------|


               release                 1/4     1/2release
E|-------------------------------------------------------------|
B|-17-17-17b----17b---15-17-17-17-----15b--17--17b--15---------|
G|---------------------16-----------------------------16-16-16-|
D|-------------------------------------------------------------|
A|-------------------------------------------------------------|
E|-------------------------------------------------------------|


                                        hold bend       1/2
E|--------------------------------------10-----10----12-12b10--|
B|--------------------------------10------10b----10b-----------|
G|--16--16--16---x14-16----------------------------------------|
D|----------------------14v--12--------------------------------|
A|------------------------------14-----------------------------|
E|-------------------------------------------------------------|


             1 1/2       release
E|-12--------0-------------------------------------------------|
B|----1212v----12b----12-10--------------------------7-x-77-7-7|
G|--------------------------9b--0-9p7-797------------7-x-77-7-7|
D|-----------------------------------9---97--------x-----------|
A|-----------------------------------------98-7-5v-x-----------|
E|-------------------------------------------------------------|



E|------------------7--7--7--7x-7-7--7x-7-x7x-7x7-7------------|
B|-7-x--7---7-7-7---7--7--7--7x-7-7--7x-7-x7x-7x7---10---------|
G|-7-x--7---7-7-7-0------------------------------------9b-9----|
D|----9---9--9-------------------------------------------------|
A|-------------------------------------------------------------|
E|-------------------------------------------------------------|


              hold to there
E|-------------------------------------------------------------|
B|-----------x-------------------------------------------------|
G|-7---------x-------------------------------------------------|
D|--9--9-9-7--779979v------|-----------------------------------|
A|-------------------------------------------------------------|
E|-------------------------------------------------------------|


^=harmonics
b=bend
p=puloff
h=hammer
v=vibrato
"            
Tabs too difficult? Try these video lessons and learn fast.


comments powered by Disqus
↑ Back to top | Tablatures and chords are parodies/interpretations of the original songs. You may use it for private study, scholarship, research or language learning purposes only