>
 >
Comfortably Numb (Solo Ver 3)

Comfortably Numb (Solo Ver 3) Guitar Tabs

Pink Floyd - Comfortably Numb (Solo Ver 3) chords, tabs, tablatures, lyrics

Guitar lessons | Add/correct | Request | Top 50 tabs Artists:  A B C D E F G H I J K L M N O P Q R S T U V W X Y Z 0-9

Comfortably Numb (Solo Ver 3) Guitar Tabs – Pink Floyd

CD, Sheet music, Poster

Do you like Comfortably Numb (Solo Ver 3)? Share with your friends now
Tabs
Comfortably Numb
Pink Floyd
The Wall

Completed Version

Hey, I promised I would complete the tab for this song, so here it is.  I have
over in its entirety.

Rhythm Guitar Chords (Played in the Background)
                      B
  B	  A     G   E(min)
|-----------------------
|-----------------------
|-4-----2-------------4-
|-4-----2-----5---2---4-
|-2-----0-----5---2---2-
|-------------3---0-----

Right before the solo starts, this is played on background guitar:

|---
|-3-
|-2-
|-0-
|---
|---

|----------------------------------------------
|----------------------------------------------
|-7---9-9b(11)>>>>>>-9b(11)>>>r9p7-7-9---7---7-
|---------------------------------9-------9----
|----------------------------------------------
|----------------------------------------------

|------------------------------------------10------------------------
|------10----10-----12-12b(15)>>>r12p10-12---------------------------
|-11------11----------------------------------------7-9-9b(10)r9p7---
|------------------------------------------------------------------9-
|--------------------------------------------------------------------
|--------------------------------------------------------------------

|---------------------------------------------
|-10p7---7------------------------------------
|------9---9-7--------------------7-----------
|--------------9----------7-7---9-------9p7-9-
|----------------------/9---------------------
|---------------------------------------------

|-7---9---9b(10)>>>>>--7----7-7-----------------------------------------------------
|-7----------------------10-----------10p7---7---10p7---7---------------------------
|------------------------------------------9----------9---9-7---9-7-----------------
|-------------------------------------------------------------9-----9-7-------------
|-----------------------------------------------------------------------9-8-7/5---5-
|-------------------------------------------------------------------------------7---

|-----------------------7---------------------------------------------------------
|-------------------------10p7-----7----------------------------------------------
|-7-7-7--------9b(11)----------9-9---9p7--9-7-------------------------------------
|---------------------------------------9-----9p7---------------------------7-7-7-
|-------------------------------------------------9-9\7-5-7p5--5---7-----/9-------
|------------------------------------------------------------7-------5h7----------

|-------------------7------------------------------7------------------------------------
|-----------------7---10--------7----------------7---10p7---7---------------------------
|----7---7-9b(11)--------9b(11)---7---9---9b(11)----------9---9-7---9-7-----------------
|-9p7--9----------------------------------------------------------9-----9-7-------------
|---------------------------------------------------------------------------9-8-7/5---5-
|-----------------------------------------------------------------------------------7---

|----------------------------------------------------------------------7------7-
|-7---------------7-------------7-------7--------------------------------10p7---
|-7-------------7-7-------------7-------7----9b(11)>>>r9p7---7-9----------------
|-7---9---------7-7---9---------7---9-------9--------------9--------------------
|-------------------------------------------------------------------------------
|-------------------------------------------------------------------------------
 
                                                                  (P.M.)
|-------------------------------------------------------------------------------------
|------------10p7---7---------------------------------------------------7-------7-----
|-9b(11)----------9---9-7-9p7---7---------------------------7-----------7-----x-7-----
|-----------------------------9---9p7-9p7---7-----------9---------(999)-7-----x-7---7-
|-----------------------------------------9---9-8-7/5---------------------------------
|-----------------------------------------------------7-------------------------------

|--------------------------------------------------------------------------------
|-x---7-------7---7-----------7---7-----------7---7------7--7--7---x-7---7-7-7-7-
|-x---7-------7---7-----------7---7-----------7---7------7--7--7---x-7---7-7-7-7-
|---------9-----------9---9-----------9---9-----------9--------------------------
|--------------------------------------------------------------------------------
|--------------------------------------------------------------------------------

|-----------------19---21-21b(22)---21pb(22)---21---21pb(22)r21--21pb(22)-21b(22)r21-19h20p19-
|-17-17b(19)>>>>>-----------------------------------------------------------------------------
|---------------------------------------------------------------------------------------------
|---------------------------------------------------------------------------------------------
|---------------------------------------------------------------------------------------------
|---------------------------------------------------------------------------------------------

|-----------------------------------------------------------------
|-/17-17-17b(19)---17b(19)---17-15-17-----15--17-17b(19)r17p15----
|--------------------------------------------------------------16-
|-----------------------------------------------------------------
|-----------------------------------------------------------------
|-----------------------------------------------------------------

|----------------------
|-------------------12-
|-/14-16---------------
|--------14---12-------
|----------------14----
|----------------------

The fadeout begins at the last note.  Everything from the fadeout on is Gilmour
improvising over B.  Couldn’t tab it cause I couldn’t hear it, so...  good luck
on the rest of it.  Call me when you’re done... in five years...





Comments


Popular Pink Floyd tabs & chords
Take It Back Bass Tabs
A Saucerful Of Secrets Chords
Another Brick In The Wall Chords
Astronomy Domine Chords
Lost For Words Chords
Money 1 Chords
Learning To Fly Tabs
Welcome To The Machine Tabs
Wish You Were Here 1 Tabs
Young Lust 1 Tabs


Song lyrics



↑ Back to top | Tablatures and chords are parodies/interpretations of the original songs. You may use it for private study, scholarship, research or language learning purposes only
© 2014 AZChords.com Contact us | Privacy policy | DMCA | Add/correct tabs | Request tabs | Top 50 tabs