>
 >
Comfortably Numb 8

Comfortably Numb 8 Guitar Tabs

Pink Floyd - Comfortably Numb 8 chords, tabs, tablatures, lyrics

Guitar lessons | Add/correct | Request | Top 50 tabs Artists:  A B C D E F G H I J K L M N O P Q R S T U V W X Y Z 0-9

Comfortably Numb 8 Guitar Tabs – Pink Floyd

CD, Sheet music, Poster

Do you like Comfortably Numb 8? Share with your friends now
Bass TabsBass Tabs v2ChordsChords v2Chords v3Drum TabsTabsTabs v2Tabs v10Tabs v3Tabs v4Tabs v5Tabs v6Tabs v7Tabs v8Tabs v9Ukulele
--------------------------------------------------------------------------
		Comfortably Numb Solo from P.U.L.S.E. - Pink Floyd
--------------------------------------------------------------------------


Tuning: Standard

| /  slide up
| \  slide down
| h  hammer-on
| p  pull-off
| ~  vibrato
| +  harmonic
| x  Mute note

e|-------------------------------------------------------------------------|
B|------------------------------------------------------------10--12--12b~-|
G|-------7+~~--9--9b--7--9br--7----7--9--9+-9br--7----7--/11---------------|
D|--------------------x----------9------------------9----------------------|
A|-\5\\/-------------------------------------------------------------------|
E|-------------------------------------------------------------------------|
  Tremolo Dive
e|-------------------------------------------------------------------------|
B|--10-12-12b----------------------7--10p7---------------------------------|
G|-------------7~~--9--9bp7--------7-------9br--7-----------------------7+-|
D|---------------------------9~~~------------------9p7--9------7--7--9-----|
A|---------------------------------------------------------/9--------------|
E|-------------------------------------------------------------------------|

e|---------7--9--9b-9br-9h7--------------------7---------------------------|
B|---------7----------------10--10br-10p7-----7---10p7---------------------|
G|---------x------------------------------9-9b---------9-9b-7-9-7---7------|
D|-9p7-9~---------------------------------------------------------9---9-7--|
A|-------------------------------------------------------------------------|
E|-------------------------------------------------------------------------|

e|---------------------7--7------------------------------------------------|
B|---------------------7-----10p7------------------------------------------|
G|-----------7+-7-7~\--9b---------9-9b-7-9-7---7---------------------------|
D|---------7---------------------------------9---9--7--9--7----------------|
A|-9\7-5-----------------------------------------------------9\7p5---5h7---|
E|-------7---------------------------------------------------------7-------|

e|-------------------------------7--------------------7--------------------|
B|-----------------------------7---10----------------7--10p7---------------|
G|-------------------7---7--9b--------9b-9r-7~-9p7-9b--------9-9b-7-9-7----|
D|--------7-7-7--9p7---9------------------------------------------------9--|
A|-5-7/9-------------------------------------------------------------------|
E|-------------------------------------------------------------------------|

e|-------------------------------------------------------------------------|
B|-------------------------------------------------------------------------|
G|-------------------------------------------------------------------------|
D|--7----------------------------------------------------------------------|
A|----9\7-5-----0-0h2-0-2~-4-4-4b-2p0-4br-2p0-/4~--2-0---0-2-5-------------|
E|-----------2-----------------------------------------3-------3-2-0\\\----|
								Tremolo Dive		
e|------------------------------------------------------10-----------------|
B|----------------------------------------7-10b-10b-10b----10b-10b-10b-10b-|
G|----------------7-9--9br-7---9-7-----------------------------------------|
D|------------7-9------------9-----9h7-9~----------------------------------|
A|--9h10--/9---------------------------------------------------------------|
E|-------------------------------------------------------------------------|

e|-------------------------------------------------------------------------|
B|--10b/12br-10~-10b-10b-10br-7---7-10b-10r-10~~-7-7-7-7---7---------------|
G|----------------------------9-------------------------/9---9-9b-7---9--7-|
D|------------------------------------------------------------------9------|
A|-------------------------------------------------------------------------|
E|-------------------------------------------------------------------------|

e|-------------------------------------------------------------------------|
B|---------7-------7b----7-7b--------7-7b---------7b-----------7b----------|
G|-9-9br-----7b----7b----7-7b--------7-7b---------7b-----------7b----------|
D|-------9------9~----9~------9p7-9~------9p7-9~-------9p7-9~-------9p7-9~-|
A|-------------------------------------------------------------------------|
E|-------------------------------------------------------------------------|

e|-------------------------------------------------------------------------|
B|-------------------------------------------------------------------------|
G|---------------7b----------------7b+----------------7~----------------7b-|
D|-9p7---7-9p7------9p7---7~-9p7-------9p7---7~-9p7------9p7---7~-9p7------|
A|-----9-------9--------9--------9---------9--------9--------9--------9----|
E|-------------------------------------------------------------------------|

e|-------------------------------------------------------------------------|
B|------------------------------------------------------7b-----------------|
G|-----------------7b+----------------7~----------------7b--9p7------------|
D|--9p7---7~-9p7-------9p7---7~-9p7------9p7---7~-9p7----------------------|
A|------9--------9---------9--------9--------9--------9--------------------|
E|-------------------------------------------------------------------------|

e|------7---7--7-----7-7-----7-7-----7-7-----------------------------------|
B|------7---7--7--7--7-7--7--7-7--7--7-7-------10p7--------------------(7)-|
G|------9b--------9b------9b------9b----------------9-9br-7-9p7--------(7)-|
D|---------------------------------------------------------------9p7-9-----|
A|-------------------------------------------------------------------------|
E|-------------------------------------------------------------------------|

e|-------------------------------------------------------------------------|
B|-----10--12--12br--10--12-12b--12b--12br--10h12p10--12-------7---7-------|
G|-/11---------------------------------------------------9p7-9---9---9br-7-|
D|-------------------------------------------------------------------------|
A|-------------------------------------------------------------------------|
E|-------------------------------------------------------------------------|

e|----------------------------------------7---------10-12p10-12-12b--12/14-|
B|--------------------------------------7---10--/12------------------------|
G|---------------------------7-7--9p7-9b-----------------------------------|
D|--9p7-9-9------------7-9p7-7-7-------------------------------------------|
A|----------9\7-5~--/9-----------------------------------------------------|
E|-------------------------------------------------------------------------|

e|-14b-14r-14-14br-12------------------------------------------------------|
B|--------------------15b-15-14-15p14--------------------------------------|
G|-------------------------------------16p14h16-14br-14-11-----14-14p11-14-|
D|---------------------------------------------------------/16-------------|
A|-------------------------------------------------------------------------|
E|-------------------------------------------------------------------------|

e|--------------------------------/17-19-19-19p17-19-19-21-21b-21b-21-21br-|
B|-------------------------------------------------------------------------|
G|-/16-16-16p14--------------14-16-----------------------------------------|
D|--------------16p14-16-16------------------------------------------------|
A|-------------------------------------------------------------------------|
E|-------------------------------------------------------------------------|

e|--19p17-19------17-17--------------------------------------------7-------|
B|-----------17b-------17br-15----15-17-17~--15-17-17br-15--------------10-|
G|------------------------------16--------------------------16~-9b---9b----|
D|-------------------------------------------------------------------------|
A|-------------------------------------------------------------------------|
E|-------------------------------------------------------------------------|

e|-------|------------|-------------------------10-12-10-12br-10h12p10-----|
B|-----7-|----7--10p7-|---------------------10b------------------------12~-|
G|--9b---|-9b---------|--9br-7---9-7---------------------------------------|
D|-------|------------|--------9-----9p7-9~--------------------------------|
A|-------|------------|----------------------------------------------------|
E|-------|------------|----------------------------------------------------|
	  x18
e|-10-12br-10-12-12-12br-10h12-12/14/17-17b-17b-17r-17b-17b-17b-17b-17-17b-|
B|-------------------------------------------------------------------------|
G|-------------------------------------------------------------------------|
D|-------------------------------------------------------------------------|
A|-------------------------------------------------------------------------|
E|-------------------------------------------------------------------------|

e|--17b-17r-17b-19b-19-19-19-|-17-----|--17-19-19-19p17-19-19-21-21b-21-19-|
B|------------------17-17-17-|----17b-|------------------------------------|
G|---------------------------|--------|------------------------------------|
D|---------------------------|--------|------------------------------------|
A|---------------------------|--------|------------------------------------|
E|---------------------------|--------|------------------------------------|
			      x12 Tremolo Vibrato	
e|-17---------------17--------------------7---7---7---7~---7---7---7---7---|
B|----\17-15h17-17b----17r-15-17-17-15----10b-10b-10b-10b~-10b-10b-10b-10b-|
G|-------------------------------------16~---------------------------------|
D|-------------------------------------------------------------------------|
A|-------------------------------------------------------------------------|
E|-------------------------------------------------------------------------|

e|--9---9---9---9~---9---9---9---9-----10--10--10--10----12--12--12--12----|
B|--12b-12b-12b-12b~-12b-12b-12b-12b---13b-13b-13b-13b---15b-15b-15b-15b---|
G|-------------------------------------------------------------------------|
D|-------------------------------------------------------------------------|
A|-------------------------------------------------------------------------|
E|-------------------------------------------------------------------------|

e||----14-17-|--17/19-19~--17-15-15\14-------------------------------------|
B||17b-------|-------------------------17-15-15/17-17-15-------------------|
G||----------|-------------------------------------------16-14~------------|
D||----------|-------------------------------------------------------------|
A||----------|--------------------------------------------------9\\\\\\\\--|
E||----------|--------------------------------------------------9\\\\\\\\\-|
    x5
e|-------------------------------------------------------------------------|
B|-------------------------------------------------------------------------|
G|-----------------------IMPROVISE ENDING...-------------------------------|
D|-------------------------------------------------------------------------|
A|-------------------------------------------------------------------------|
E|--3~~-2-0\\\\//----------------------------------------------------------|
	   Tremolo Dive
e|-------------------------------------------------------------------------|
B|-------------------------------------------------------------------------|
G|-------------------------------------------------------------------------|
D|-------------------------------------------------------------------------|
A|-------------------------------------------------------------------------|
E|-------------------------------------------------------------------------|
===========================================================================





Comments


Popular Pink Floyd tabs & chords
Bravery Of Being Out Of Range Chords
Comfortably Numb Chords
Have A Cigar Chords
Mother 1 Chords
The Wall Chords
Comfortably Numb (Solo Ver 3) Tabs
On The Turning Away Tabs
The Fletcher Memorial Home 5 Tabs
Wearing The Inside Out 2 Tabs
Let There Be More Light Ukulele


Song lyrics



↑ Back to top | Tablatures and chords are parodies/interpretations of the original songs. You may use it for private study, scholarship, research or language learning purposes only
© 2014 AZChords.com Contact us | Privacy policy | DMCA | Add/correct tabs | Request tabs | Top 50 tabs