» » »

Comfortably Numb Bass tabs (ver.1)

Artists:  A B C D E F G H I J K L M N O P Q R S T U V W X Y Z # 

Comfortably Numb Bass tabs (ver.1)

Pink Floyd
Rating:
0/5 (0 votes)

Hard to play? Try these video lessons and learn fast.
                Pink Floyd: Comfortably Numb

Intro:

  1 & 2 & 3 & 4 &  1 & 2 & 3 & 4 &
G|---------------||---------------|
D|---------------||---------------|
A|2------22------||2-------2------|
E|---------------||---------------|

Verse 1:

  1 & 2 & 3 & 4 &  1 & 2 & 3 & 4 &  1 & 2 & 3 & 4 &  1 & 2 & 3 & 4 &
G|---------------||---------------||---------------||---------------|
D|---------------||---------------||---------------||---------------|
A|2------22------||0-------0------||---------------||2-------2------|
E|---------------||---------------||3-----2-0------||---------------|
  
  "Hello, Hello....."


  1 & 2 & 3 & 4 &  1 & 2 & 3 & 4 &  1 & 2 & 3 & 4 &  1 & 2 & 3 & 4 &
G|---------------||---------------||---------------||---------------|
D|---------------||---------------||---------------||---------------|
A|2------22------||0-------0------||---------------||2-------2------|
E|---------------||---------------||3-----2-0------||---------------|
  
  "Come on, Come on now...."


  1 & 2 & 3 & 4 &  1 & 2 & 3 & 4 &  1 & 2 & 3 & 4 &  1 & 2 & 3 & 4 &
G|---------------||---------------||---------------||---------------|
D|---------------||---------------||---------------||---------------|
A|2------22------||0------00------||---------------||2-------2------|
E|---------------||---------------||3-----2-0------||---------------|
   
  "Relax, Relax....."


Chorus 1:

  1 & 2 & 3 & 4 &  1 & 2 & 3 & 4 &  1 & 2 & 3 & 4 &  1 & 2 & 3 & 4 &  1 & 2 & 3 & 4 &
G|---------------||---------------||---------------||---------------||---------------|
D|---------------||---------------||---------------||---------------||---------------|
A|5-----------5-\||0--------------||5-----------5-\||0-------------2||3--------------|
E|---------------||---------------||---------------||---------------||---------------|
                                                                    ^^
  "There is no pain...."

  1 & 2 & 3 & 4 &  1 & 2 & 3 & 4 &  1 & 2 & 3 & 4 &
G|---------------||---------------||---------------|
D|---------------||---------------||---------------|
A|--------------2||3--------------||---------------|
E|3--------------||---------------||3--------------|
                 ^^
  "Waves..." 

  1 & 2 & 3 & 4 &  1 & 2 & 3 & 4 &  1 & 2 & 3 & 4 &  1 & 2 & 3 & 4 &  1 & 2 & 3 & 4 &
G|---------------||---------------||---------------||---------------||---------------|
D|---------------||---------------||---------------||---------------||---------------|
A|5-----------5-\||0--------------||5-----------5-\||0-------------2||3--------------|
E|---------------||---------------||---------------||---------------||---------------|
                                                                    ^^
  "When I was a child....." 

  1 & 2 & 3 & 4 &  1 & 2 & 3 & 4 &  1 & 2 & 3 & 4 &
G|---------------||---------------||---------------|
D|---------------||---------------||---------------|
A|--------------2||3--------------||---------------|
E|3--------------||---------------||3--------------|
                 ^^
  "again, I can't explain...." 

Bridge 1:

  1 & 2 & 3 & 4 &  1 & 2 & 3 & 4 &  1 & 2 & 3 & 4 &
G|---------------||---------------||---------------|
D|---------------||---------------||---------------|
A|0---0-0-------2||3--------------||5-------5------|
E|---------------||--------3------||---------------|
                 ^^
  "I have become, comfortably numb...." 


Guitar Solo 1:

  1 & 2 & 3 & 4 &  1 & 2 & 3 & 4 &  1 & 2 & 3 & 4 &  1 & 2 & 3 & 4 &  1 & 2 & 3 & 4 &
G|---------------||---------------||---------------||---------------||---------------|
D|---------------||---------------||---------------||---------------||---------------|
A|5-------5------||0------00---234||5-------5------||0------00-----2||3-------3------|
E|---------------||---------------||---------------||---------------||---------------|
                                                                    ^^

  1 & 2 & 3 & 4 &  1 & 2 & 3 & 4 &  1 & 2 & 3 & 4 &
G|---------------||---------------||---------------|
D|---------------||---------------||---------------|
A|---------------||3-------3------||---------------|
E|3------23------||---------------||3------33------|

Bridge 2:

  1 & 2 & 3 & 4 &  1 & 2 & 3 & 4 &  1 & 2 & 3 & 4 &
G|---------------||---------------||---------------|
D|---------------||---------------||---------------|
A|0-------0-----2||3---3-5--------||5~-------------|
E|---------------||--------3------||---------------|
                 ^^
  "I have become, comfortably numb...."

Verse 2:

  1 & 2 & 3 & 4 &  1 & 2 & 3 & 4 &  1 & 2 & 3 & 4 &  1 & 2 & 3 & 4 &
G|---------------||---------------||---------------||---------------|
D|---------------||---------------||---------------||---------------|
A|2------22------||0-------0------||---------------||2~-------------|
E|---------------||---------------||3-----2-0------||---------------|
  
  "OK, OK,...."


  1 & 2 & 3 & 4 &  1 & 2 & 3 & 4 &  1 & 2 & 3 & 4 &  1 & 2 & 3 & 4 &
G|---------------||---------------||---------------||---------------|
D|---------------||---------------||---------------||---------------|
A|2~-------------||0-------0-0----||---------------||2~-------------|
E|---------------||---------------||3-----2-0------||---------------|

  "stand up, stand up....."


Chorus 2:

  1 & 2 & 3 & 4 &  1 & 2 & 3 & 4 &  1 & 2 & 3 & 4 &  1 & 2 & 3 & 4 &  1 & 2 & 3 & 4 &
G|---------------||---------------||---------------||---------------||---------------|
D|---------------||---------------||---------------||---------------||---------------|
A|5-----------5-\||0--------------||5-----------5-\||0-------------2||3--------------|
E|---------------||---------------||---------------||---------------||---------------|
                                                                    ^^
  "There is no pain...."


  1 & 2 & 3 & 4 &  1 & 2 & 3 & 4 &  1 & 2 & 3 & 4 &
G|---------------||---------------||---------------|
D|---------------||---------------||---------------|
A|--------------2||3--------------||---------------|
E|3--------------||---------------||3--------------|
                 ^^
  "Waves...."


  1 & 2 & 3 & 4 &  1 & 2 & 3 & 4 &  1 & 2 & 3 & 4 &  1 & 2 & 3 & 4 &  1 & 2 & 3 & 4 &
G|---------------||---------------||---------------||---------------||---------------|
D|---------------||---------------||---------------||---------------||---------------|
A|5-----------5-\||0--------------||5-----------5-\||0-------------2||3--------------|
E|---------------||---------------||---------------||---------------||---------------|
                                                                    ^^
  "When I was a child...."


  1 & 2 & 3 & 4 &  1 & 2 & 3 & 4 &  1 & 2 & 3 & 4 &
G|---------------||---------------||---------------|
D|---------------||---------------||---------------|
A|--------------2||3--------------||---------------|
E|3--------------||---------------||3--------------|

  "gone, I cannot put my finger on it now......."

Bridge 3:

  1 & 2 & 3 & 4 &  1 & 2 & 3 & 4 &  1 & 2 & 3 & 4 &  1 & 2 & 3 & 4 &
G|---------------||---------------||---------------||---------------|
D|----7-7-7------||---------------||---------------||---------------|
A|0-------------2||3--------------||5---5---5---5--||5---5---5\-----|
E|---------------||--------3------||---------------||---------------|

  "I have become comfortably numb...."

Fade Out Ending
(not to scale)(see below)

  1 & 2 & 3 & 4 &  1 & 2 & 3 & 4 &  1 & 2 & 3 & 4 &  1 & 2 & 3 & 4 &
G|---------------||---------------||---------------||---------------|
D|---------------||---------------||---------------||---------------|
A|2-------2------||0-------0------||---------------||2-------2------|
E|---------------||---------------||3-----2-0------||---------------|

Play it over and over until fade out/ Mix it up/ have fun with it.


    \ = guitar slide down
    ~ = let it ring
   ^^ = guitar slide between measures
            
Hard to play? Try these video lessons and learn fast. | Correct




comments powered by Disqus
↑ Back to top | Tablatures and chords are parodies/interpretations of the original songs. You may use it for private study, scholarship, research or language learning purposes only