» » »

Pink Floyd, Celestial Voice Bass tabs (ver.1)

Artists:  A B C D E F G H I J K L M N O P Q R S T U V W X Y Z # 

Celestial Voice Bass tabs (ver.1)

Pink Floyd Tabs
 Rating:
4/5 (4 votes)
Celestial Voice lessons Tabs too difficult? Try these video lessons and learn fast
                This is the tab of the last part of the song “A Saucerful Of Secrets”


G||-----------------------|--------------------|---------------------|
D||*----------------------|--------------------|---------------------|
A||*--------------------5-|--------------------|-------------------2-|
E||---7----7----7----7----|-5----5----5----5\0-|-0----0----0----0----|
      q    q    q    e  e   q    q    q    e e   q    q    q    e  e


G|--------------------|---------------------|-------------------|
D|--------------------|---------------------|-------------------|
A|--------------------|-5----5----5----5--3-|-------------------|
E|-2----2----2----2/7-|---------------------|-3----3----3----3--|
   q    q    q    e e   q    q    q    e  e   q    q    q    q


G|--------------------|------------------|--------------------|
D|--------------------|------------------|--------------------|
A|--------------------|------------------|--------------------| 
E|-0----0----0----0/7-|-5----5----5----5-|-2----2----2----2/7-|
   q    q    q    e e   q    q    q    q   q    q    q    e e


G|------------------|------------------|------------------|
D|------------------|------------------|------------------|
A|------------------|------------------|------------------|
E|-7----7----7----7-|-3----3----3----3-|-2----2----2----2-|
   q    q    q    q   q    q    q    q   q    q    q    q

                                                           X2
G|------------------|------------------|-------------------||
D|------------------|------------------|------------------*||
A|------------------|-5----5----5----5-|------------------*||
E|-0----0----0----0-|------------------|-2----2----2----2--||
   q    q    q    q   q    q    q    q   q    q    q    q


  
   “Aaaaaaaaaaaaaaaaaaaaaaaaaaaaaaaaaa....”
G||-----------------------|--------------------|---------------------|
D||*----------------------|--------------------|---------------------|
A||*--------------------5-|--------------------|-------------------2-|
E||---7----7----7----7----|-5----5----5----5\0-|-0----0----0----0----|
      q    q    q    e  e   q    q    q    e e   q    q    q    e  e


G|---------------------|--------------------------|-----------------------|
D|---------------------|--------------------------|-----------------------|
A|---------------------|-17----17----17----17--15-|-----------------------|
E|-2----2----2----2/19-|--------------------------|-15----15----15----15--|
   q    q    q    e  e    q     q     q     e   e    q     q     q     q


G|------------------------|------------------|---------------------|
D|------------------------|------------------|---------------------|
A|------------------------|------------------|---------------------|
E|-12----12----12----12\7-|-5----5----5----5-|-2----2----2----2/19-|
    q     q     q     e e   q    q    q    q   q    q    q    e  e


G|----------------------|----------------------|----------------------|
D|----------------------|----------------------|----------------------|
A|----------------------|----------------------|----------------------|
E|-19----19----19----19-|-15----15----15----15-|-14----14----14----14-|
    q     q     q     q    q     q     q     q    q     q     q     q

                                                           

G|----------------------|----------------------|-------------------||
D|----------------------|----------------------|------------------*||
A|----------------------|----------------------|------------------*||
E|-12----12----12----12-|-10----10----10----10-|-2----2----2----2--||
    q     q     q     q    q     q     q     q   q    q    q    q


G|------------------------|
D|------------------------|
A|------------------------|
E|----\7--7---7---7--\19/-|
       e  q   q   q    w
            
Submit corrections

comments powered by Disqus
↑ Back to top | Pink Floyd Bass for Celestial Voice. Lyrics for acoustic guitar and electric guitar. Tablatures and chords are parodies/interpretations of the original songs. You may use it for private study, scholarship, research or language learning purposes only