» » »

Pink Floyd, Breath Reprise Tabs (ver.1)

Artists:  A B C D E F G H I J K L M N O P Q R S T U V W X Y Z # 

Breath Reprise Tabs (ver.1)

Pink Floyd Tabs
 Rating:
4/5 (4 votes)
Breath Reprise lessons Tabs too difficult? Try these video lessons and learn fast
1
                Pink Floyd - Breathe (Reprise) -ACOUSTIC VERSION-

NOTE:
The reprise is an extend of the original Breathe, so the
chords Em, A and Bm can be used instead of Em9, A7 and Bm7 respectively.
Listen to the song to catch the rhythm. You can find this acoustic version
on "The Making Dark Side of the Moon" DVD (released 2003) or simply searching

 Em9      A7      FILL 1
Home,home again
 Em9                      A7    FILL 2
I like to be there when I can
 Em9                    A7      FILL 3
When I come in cold and tired
 Em9                                  A7      FILL 2
It's good to warm my bones beside the fire


Cmaj7/G
Far away across the field
Bm7
The tolling of the iron bell
Fmaj7/C
Calls the faithful to their knees
G6/D               D7#9   D7b9 (5b)    Bm7
To hear the softly spoken   magic     spells.


FILL 1

e-----------------------------|
B------2------1/3--3-----2----|
G----0---0----0---------------|
D--2----------2/4-----2-------|
A--0--------------------------|
E-----------------------------|

FILL 2


e-----------------------------|
B-----2------2h3---2----------|
G---0---0------------0--------|
D-2-------2------------2------|
A-0---------------------------|
E-----------------------------|

FILL 3

e-0------|-0-|-----0----0------|
B-2/14---|-14|-----12---10---0-|
G-0------|-0-|-----0----0----0-|
D-2/14---|-14|-----12---11---0-|
A-0------|-0-|-----0----0------|
E--------|---|-x5--------------|


CHORDS USED

 CHORDS USED

________Em9________A7_______Cmaj7/G____Bm7
e--------0---------0----------0----------2-----|
B--------0---------2----------0----------3-----|
G--------0---------0----------0----------2-----|
D--------4---------2----------2----------4-----|
A--------2---------0----------3----------1-----|
E--------0---------0----------3----------x-----|

_______Fmaj7/C____G6/D_______D7#9______D7b9(5b)
e--------0---------0----------0----------4-----|
B--------1---------3----------6----------4-----|
G--------2---------4----------5----------5-----|
D--------3---------5----------4----------4-----|
A--------3---------5----------5----------5-----|
E--------x---------x----------x----------x-----|
            
Submit corrections

comments powered by Disqus
↑ Back to top | Pink Floyd Tabs for Breath Reprise. Lyrics for acoustic guitar and electric guitar. 1 Tablatures and chords are parodies/interpretations of the original songs. You may use it for private study, scholarship, research or language learning purposes only