>
 >
Breathe Reprise

Breathe Reprise Guitar Tabs

Pink Floyd - Breathe Reprise chords, tabs, tablatures, lyrics

Guitar lessons | Add/correct | Request | Top 50 tabs Artists:  A B C D E F G H I J K L M N O P Q R S T U V W X Y Z 0-9

Breathe Reprise Guitar Tabs – Pink Floyd

CD, Sheet music, Poster

Do you like Breathe Reprise? Share with your friends now
ChordsTabsUkulele
Words and Music by Roger Waters, David Gilmour & Rick Wright


Gtr I (E A D G B E) - 'David Gilmour - Rhythm w/slight dist & phaser'
Gtr II, III (E A D G B E) - 'David Gilmour - Lap steel arr. for gtr.'

Verse
  Q=64
 4/4
  Gtr I
  H.        +S  E.   Q  +E  S S +E  S S +S  E.    E. T T Q  +E. S +S S E
|-0---------(0)----|---------------------------|-----0----------0-(0)----|
|-0---------(0)-0--|----------3-(3)---2-(2)----|-------0-------------0---|
|-0---------(0)-0--|------------------------2--|---------0--(0)--------0-|
|-4---------(4)-4--|--------2-------2----------|-------------------------|
|-2---------(2)-2--|-0--(0)--------------------|-------------------------|
|-0---------(0)----|---------------------------|--0----------------------|
|
| Gtrs II, III
|                                                 ~~~
| H     H            H          +E  E    Q        H.               Q
|------------------|---------------------------|-12----------------------|
|------------------|-2----------(2)-2s==14\----|-12---------------12s====|
|-------9\---------|-2----------(2)-2s==14\----|-12---------------12s====|
|------------------|---------------------------|-------------------------|
|------------------|---------------------------|-------------------------|
|------------------|---------------------------|-------------------------|


   E S S E. S  +E. S +S  E.    E.  S Q  +E. S +S  E.
|---------------------------|-----!0--------0-(0)----|
|--------2--3--(3)-2-(2)----|-----!0--------------0--|
|------2----2--(2)-2-(2)-2--|-----!0-----------------|
|----2-------------2-(2)----|-----!4-----------------|
|--0------------------------|--------2--(2)----------|
|---------------------------|--0---------------------|
|
|  ~~                          ~~~
|  H           +H              H         H
|---------------------------|-12--------12\----------|
|-14----------(14)S=========|=12--------12\----------|
|-14----------(14)S=========|=12---------------------|
|---------------------------|------------------------|
|---------------------------|------------------------|
|---------------------------|------------------------|


  E  S S E  E   S  S S S +S  E.
|-------------------------------------|
|--------2------3------2-(2)----------|
|------2-----------2---------2--------|
|----2------2--------2----------------|
|-0-----------------------------------|
|-------------------------------------|
|
| Q.       +E   Q.               +E
|-------------------------------------|
|-2--------(2)s14---------------(14)\-|
|-2--------(2)s14---------------(14)\-|
|-------------------------------------|
|-------------------------------------|
|-------------------------------------|


                                                        Chorus
   E.  S Q  +E. S +S E.    E. S E. S  +E  S S +S  S E     H.      +E. S
|-----!0--------0-(0)---|-----------------------------||--0-------(0)-0--|
|-----!0-------------0--|-------2--3--(3)---2-(2)-----||--0-------(0)-0--|
|-----!0----------------|-----2----2--(2)---2-(2)-2---||--0-------(0)-0--|
|-----!4----------------|-----------------------------||--2-------(2)----|
|--------2--(2)---------|--0--------------0-----------||--3-------(3)----|
|--0--------------------|-----------------------------||-----------------|
|
|  ~~~                                                    ~~~
|  H.              Q       H           H                  H.       Q
|-12--------------------|-----------------------------||-----------------|
|-12--------------12s===|=14---------/14\-------------||-12-------12\----|
|-12--------------12s===|=14---------/14\-------------||-12-------12\----|
|-----------------------|-----------------------------||-----------------|
|-----------------------|-----------------------------||-----------------|
|-----------------------|-----------------------------||-----------------|


  H    +E. S +S  S E   H.      +S  S E    H    Q  Q     W
|-2----(2)-2-(2)-----|-0-------(0)-0---|-------------||-2----*|
|-3----(3)-3-(3)-3---|-1-------(1)-1---|--3----6--4--||-3----*|
|-2----(2)-2-(2)-2---|-2-------(2)-----|--4----5--5--||-4----*|
|-4----(4)-------4---|-3-------(3)-----|--3----4--4--||-4----*|
|-2----(2)-----------|-3-------(3)-----|--5----5--3--||-2----*|
|--------------------|-----------------|-------------||------*|
|
| ~~~~~~~~~~~~~~~~~~~~~~~~
| W                    W                  H    H        W
|--------------------|-5---------------|-------------||------*|
|-7------------------|-5---------------|-12----------||------*|
|-7------------------|-5---------------|-12----------||------*|
|--------------------|-----------------|-12----------||------*|
|--------------------|-----------------|-------------||------*|
|--------------------|-----------------|-------------||------*|





Comments


Popular Pink Floyd tabs & chords
Another Brick In The Wall Pt. 3 Bass Tabs
Let There Be More Light Bass Tabs
In The Flesh! Chords
Point Me At The Sky Chords
Two Of A Kind Chords
Another Brick In The Wall Part 2 3 Tabs
Comfortably Numb Tabs
Dramatic Theme Tabs
One Of The Few Tabs
Corporal Clegg Ukulele


Song lyrics



↑ Back to top | Tablatures and chords are parodies/interpretations of the original songs. You may use it for private study, scholarship, research or language learning purposes only
© 2014 AZChords.com Contact us | Privacy policy | DMCA | Add/correct tabs | Request tabs | Top 50 tabs