» » »

Pink Floyd, Another Brick In The Wall Pt. Bass tabs (ver.2)

Artists:  A B C D E F G H I J K L M N O P Q R S T U V W X Y Z # 

Another Brick In The Wall Pt. Bass tabs (ver.2)

Pink Floyd Tabs
 Rating:
4/5 (4 votes)
Another Brick In The Wall Pt. lessons Tabs too difficult? Try these video lessons and learn fast
                "(3)

This one is tabbed for a 5-string bass..

   I dont need no arms around me.
G|----------------------------------|
D|----------------------------------|
A|-------------------------------5--|
E|----------------------------------|
B|-3---3---3---3---3---3---3---3----|

   And I dont need no drugs to calm me.
G|-------------------------------------|
D|-------------------------------------|
A|----------------------------------5--|
E|-------------------------------------|
B|----3---3---3---3---3---3---3---3----|

  I have seen the writting on the wall.
G|-----------------------------------|
D|-----------------------------------|
A|--------------------------------5--|
E|-----------------------------------|
B|-3---3---3---3---3---3---3---3-----|

  Dont think I need anything at all. 
G|-----------------------------------------
D|----------------------------------5---5--
A|-----------------------------------------
E|--------------------------------3---3----
B|-3---3---3---3---3---3---3---3-----------

       No,       Dont think I need anything at all.
---5---5---5---5--------------------------------------------------|
----------------------------------------------------/17------5----|
3---3---3---3-----1-3----1-3-----1-3-----1-3--1-------------------|
------------------------------------------------3--------3--------|

  All in all it was all just bricks in the wall.
G|----------------------------------------|
D|----------------------------------------|
A|----------------------3---3---3---3-----|
E|--------1---1---1---1-------------------|
B|-3-3-3------------------------------3---|

  All in all you were all just bricks in the wall.
G|----------------------------------------|
D|----------------------------------------|
A|----------------------3---3---3---3-----|
E|--------1---1---1---1-------------------|
B|-3-3-3------------------------------3---|
"            
Submit corrections

comments powered by Disqus
↑ Back to top | Pink Floyd Bass for Another Brick In The Wall Pt.. Lyrics for acoustic guitar and electric guitar. Tablatures and chords are parodies/interpretations of the original songs. You may use it for private study, scholarship, research or language learning purposes only