» » »

Pink Floyd, Another Brick In The Wall Pt. Bass tabs (ver.1)

Artists:  A B C D E F G H I J K L M N O P Q R S T U V W X Y Z # 

Another Brick In The Wall Pt. Bass tabs (ver.1)

Pink Floyd Tabs
Rating:
0/5 (0 votes)
Another Brick In The Wall Pt. lessons Tabs too difficult? Try these video lessons and learn fast
                "(2)
Pink Floyd – Another brick in the wall (pt 2)
             The Happiest days of our lives
Album – The Wall (1979)


Drop D tuning (low to high – D, A, D, G)


The Happiest days of our lives
Bass enters 00:30

 D        o     D                    o   
|------|-----|---------------------|---|---|---|-----|-----|
|------|-----|---------------------|---|---|---|-----|-----|
|-5/0--|--5--|--5/0--5--3--1-------|---|---|---|-----|-----|
|------|-----|----------------7-5--|-5-|-5-|-5-|-5\7-|-5\7-|

Vocals enter

|-----|-----|--------------|---|
|-----|-----|--------------|---|
|-----|-----|-----3--------|---|
|-5\7-|-5\7-|-5\7-----5\7--|-7-|
        D                       o
|-----|----------|-------------------|-----|-----|------|
|-----|------10--|-------------------|-----|-----|------|
|-----|----------|-------------------|-----|-----|------|
|-5\7-|--5-7-10--|--5\7—-7/2----5-7--|-5-7-|-5-7-|-5-7--|

Bridge

|-------------------------------------|
|-------------------------------------|
|-5-5-5-5/-1-1-1-1--------------------|
|-------------------5-5-5-5-\10—--12/-|

|---------------------------|
|---------------------------|
|----1-----1-----1----------|
|-3-----3-----3-----5---5---|


Another brick in the wall (pt 2)

Bass enters 00:05
                                4
|---|---|  |.-------------------.|
|---|---|  |---------------------|
|---|---|  |----3-5--5--3-0-3----|
|-0-|-r-|  |.-0-----------------.|

|---|---|---|-----------------||------------------|
|---|---|---|-----------------||------------------|
|---|---|---|-----------------||---3-5--5--3-0----|
|-5-|-5-|-5-|-5--5-5-5-5-\12--||-0--------------5-|

|-----------------------------|--------------|------|
|-----------------------------|--------------|------|
|------3-------3-5--5-3-0-----|------3-------|------|
|-3-------0---------------5---|-3-------0----|--r---|

|---|---|  |.-------------------.|
|---|---|  |---------------------|
|---|---|  |----3-5--5--3-0-3----|
|-0-|-r-|  |.-0-----------------.|

|---|---|---|-----------------||------------------|
|---|---|---|-----------------||------------------|
|---|---|---|-----------------||---3-5--5--3-0----|
|-5-|-5-|-5-|-5--5-5-5-5-\12--||-0--------------5-|

|-----------------------------|--------------|---------------|
|-----------------------------|--------------|---------------|
|------3-------3-5--5-3-0-----|------3-------|-3-5--5-3-0-3--|
|-3--------0--------------5---|-3--------0---|---------------|

Guitar solo
                                             8
|.-------------------------------------------.|
|---------------------------------------------|
|----3--5--5--3--0--3---------3--5--5—-3--5---|
|.-0-----------------------0-----------------.|



Key:

D = Digital Delay on
o = digital delay off
/ = slide down (ie : 15 – 3)
\ = Slide up   (ie : 3 – 15)
r = Rest

     X = Number of repeats (where X is the number)
|.---.|
|-----|
|-----|
|.---.| = repeat figure
"            

comments powered by Disqus
↑ Back to top | Pink Floyd Bass for Another Brick In The Wall Pt.. Lyrics for acoustic guitar and electric guitar. Tablatures and chords are parodies/interpretations of the original songs. You may use it for private study, scholarship, research or language learning purposes only