» » »

Pink Floyd, Another Brick In The Wall (Part 2) Bass tabs (ver.2)

Artists:  A B C D E F G H I J K L M N O P Q R S T U V W X Y Z # 

Another Brick In The Wall (Part 2) Bass tabs (ver.2)

Pink Floyd Tabs
 Rating:
4/5 (4 votes)
Another Brick In The Wall (Part 2) lessons Tabs too difficult? Try these video lessons and learn fast
                "(2)
Another Brick in the wall by - pink Floyd



G-----------------|
D-----------------|
A-----------------|
E-0-0-0-0-0-0-0-0-| x4

pause for a bit then:
G-----|
D-----|
A-----|
E--0--| let ring out

pause
G--------------------|
D--------------------|
A-----3-5--5--5-0--3-|
E--0-----------------| x4

G-----------------|
D-----------------|
A-----------------|
E-5-5-5-5-5-5-5-5-| x5

G--------------------|
D--------------------|
A-----3-5--5--5-0--3-|
E--0-----------------|

G-----------------------------------------|
D-----------------------------------------|
A-----------------------------------------|
E-1-1-1-1-1-1-1-1-1-1-3-3-3-3-3-3-3-3-3-3-|

G--------------------|
D--------------------|
A-----3-5--5--5-0--3-|
E--0-----------------|

G-----------------------------------------|
D-----------------------------------------|
A-----------------------------------------|
E-1-1-1-1-1-1-1-1-1-1-3-3-3-3-3-3-3-3-3-3-|

pause
G-----|
D-----|
A-----|
E--0--| let ring out

pause
G--------------------|
D--------------------|
A-----3-5--5--5-0--3-|
E--0-----------------| x4

G-----------------|
D-----------------|
A-----------------|
E-5-5-5-5-5-5-5-5-| x5

G--------------------|
D--------------------|
A-----3-5--5--5-0--3-|
E--0-----------------|

G-----------------------------------------|
D-----------------------------------------|
A-----------------------------------------|
E-1-1-1-1-1-1-1-1-1-1-3-3-3-3-3-3-3-3-3-3-|

G--------------------|
D--------------------|
A-----3-5--5--5-0--3-|
E--0-----------------|

G-----------------------------------------|
D-----------------------------------------|
A-----------------------------------------|
E-1-1-1-1-1-1-1-1-1-1-3-3-3-3-3-3-3-3-3-3-|

G--------------------|
D--------------------|
A-----3-5--5--5-0--3-|
E--0-----------------|

Now the solo/outro:
G--------------------|----------------|
D--------------------|----------------|
A-----3-5--5--5-0--3-|----3-5-----3-5-|
E--0-----------------|-0-------0------| x5

Thanks
"            
Submit corrections

comments powered by Disqus
↑ Back to top | Pink Floyd Bass for Another Brick In The Wall (Part 2). Lyrics for acoustic guitar and electric guitar. Tablatures and chords are parodies/interpretations of the original songs. You may use it for private study, scholarship, research or language learning purposes only