» » »

Another Brick In The Wall () Tabs (ver.4)

Artists:  A B C D E F G H I J K L M N O P Q R S T U V W X Y Z # 

Another Brick In The Wall () Tabs (ver.4)

Pink Floyd
Rating:
4/5 (27 votes)

Hard to play? Try these video lessons and learn fast.
                (Part2)
Another Brick in the Wall, part 2 - Pink Floyd

-verse-
      Am
e|----5----------------------------------------------
B|----6----------------------------------------------
G|----7----(do this chord----------------------------
D|----7-----with the funk rythym)--------------------
A|----5----------------------------------------------
E|---------------------------------------------------

play this over the Am
e|---------------------------------------------------
B|---------------------------------------------------
G|--------7--9-10-9---7--9-10-9----------------------
D|---------------------------------------------------
A|---------------------------------------------------
E|---------------------------------------------------

then
e|---------------------------------------------------
B|---------------------------------------------------
G|--------7--9-10-9---7--9-10------------------------
D|---------------------------------------------------
A|---------------------------------------------------
E|---------------------------------------------------

pre chorus( hey, teacher....)
      Gmaj
e|------7-------(strum for about 4 measures)
B|------8-------
G|------7-------
D|--------------
A|--------------
E|--------------

little lead thingy
e|---10--x--8---10--8--8-8---
B|---10--x--8---10--8--7-7---
G|---------------------------
D|---------------------------
A|---------------------------
E|---------------------------

Chorus
       F	C	D	
e|--------------------------
B|--------------------------
G|----10----5----7----------
D|----10----5----7----------
A|-----8----3----5----------
E|--------------------------
            
Hard to play? Try these video lessons and learn fast. | Correct




comments powered by Disqus
↑ Back to top | Tablatures and chords are parodies/interpretations of the original songs. You may use it for private study, scholarship, research or language learning purposes only