» » »

Pink, Trouble Bass tabs (ver.1)

Artists:  A B C D E F G H I J K L M N O P Q R S T U V W X Y Z # 

Trouble Bass tabs (ver.1)

Pink Tabs
 Rating:
4/5 (4 votes)
Trouble lessons Tabs too difficult? Try these video lessons and learn fast
                Pink - Trouble
Bass tab 



verse

G --------|--------|-------|--------
D --------|--------|-------|--------
A --------|55-5----|33-3---|--------
E 33-3----|--------|-------|33-3----


chorus/solo

G --------|--------|--------|--------
D --------|--------|--------|--------
A ----3333|----3333|----3333|55553333
E 3333----|3333----|3333----|--------


chorus2 
                             1st time 2nd time
G --------|--------|--------|--------|--------
D --------|--------|--------|--------|--------
A ------3-|------3-|------3-|5-5-3-3-|55553333
E 3-3-----|3-3-----|3-3-----|--------|--------


bridge

G --------|--------|--------|--------
D --------|--------|--------|--------
A 2-----3-|5-------|2-----3-|5-------
E --------|---3----|--------|---3--5-

G --------|--------|--------|--------
D --------|--------|--------|--------
A 2-----3-|5-------|2-------|33335555
E --------|---3----|--------|--------


order:

intro (guitar only)
verse x2
chorus x2
verse x2 
chorus x2
bridge
solo x2
rest 4 measures
verse x3
chorus x2
bridge
chorus2 x2
chorus x2
solo x2
            
Submit corrections

comments powered by Disqus
↑ Back to top | Pink Bass for Trouble. Lyrics for acoustic guitar and electric guitar. Tablatures and chords are parodies/interpretations of the original songs. You may use it for private study, scholarship, research or language learning purposes only