» » »

Pink, Funhouse Bass tabs (ver.3)

Artists:  A B C D E F G H I J K L M N O P Q R S T U V W X Y Z # 

Funhouse Bass tabs (ver.3)

Pink Tabs
Rating:
5/5 (1 vote)
Funhouse lessons Tabs too difficult? Try these video lessons and learn fast
                 
Tuning: Standard

intro
G|--------------------------|
D|--------------------------| X 2
A|----2-3-2-32-0-0-2-0------|
E|--0------------------3-2--|

verse
G|---------------------------|
D|---------------------------| X 2
A|----2-3-2-32-0-0-2-0-------|
E|--0------------------3-2---|

pre chorus
G|----------------------------------------------|
D|------------2222-----------------2222---------|
A|-------2222------3333-------2222------3333-3~-|
E|--3333-----------------3333-------------------|

chorus
G|---------------------------|
D|---------------------------| X 4
A|-------------3-3-3-5555-55-|
E|--0-0-000000---------------|


G|--------------------------|
D|--------------------------| X 2
A|----2-3-2-32-0-0-2-0------|
E|--0------------------3-2--|

verse
G|--------------------------|
D|--------------------------| X 2
A|----2-3-2-32-0-0-2-0------|
E|--0------------------3-2--|

pre chorus
G|----------------------------------------------|
D|------------2222-----------------2222---------|
A|-------2222------3333-------2222------3333-3~-|
E|--3333-----------------3333-------------------|

chorus
G|---------------------------|
D|---------------------------| X 8
A|-------------3-3-3-5555-55-|
E|--0-0-000000---------------|


G|-----------------------------------------|
D|-----------------------------------------|
A|----2-3-2-32-0-0-2-0--------2-3-2-32-0-0-|
E|--0------------------3-2--0--------------|

bridge
G|-------------------------------------------------------------------|
D|------2-2-1-1-0-0----------------------2-2-1-1-0-0-----------------| X 2
A|------------------4-4-3-3-2-2-0-2------------------4-4-3-3-2-2-0-2-|
E|--0-0------------------------------0-0-----------------------------|

G|-----------------|
D|-----------------|
A|----------2~--7\-|
E|-3-3-3-33--------|


G|--------------------------|
D|--------------------------| X 2
A|----2-3-2-32-0-0-2-0------|
E|--0------------------3-2--|

chorus
G|---------------------------|       end on: G|----|
D|---------------------------| X 8           D|----|
A|-------------3-3-3-5555-55-|               A|----|
E|--0-0-000000---------------|               E|-0--|



| /  slide up
| \  slide down
| h  hammer-on
| p  pull-off
| ~  vibrato
| +  harmonic
| x  Mute note
================================================================================================
            
Submit corrections

comments powered by Disqus
↑ Back to top | Pink Bass for Funhouse. Lyrics for acoustic guitar and electric guitar. Tablatures and chords are parodies/interpretations of the original songs. You may use it for private study, scholarship, research or language learning purposes only