» » »

Pink, Fuckin Bass tabs (ver.1)

Artists:  A B C D E F G H I J K L M N O P Q R S T U V W X Y Z # 

Fuckin Bass tabs (ver.1)

Pink Tabs
 Rating:
4/5 (4 votes)
Fuckin lessons Tabs too difficult? Try these video lessons and learn fast
                (Perfect)
-------------------------------------------------------------------------------
-------------------------------------------------------------------------------


Tuning: EADG

I'm not entirely sure on this tab, but if you feel you have any corrections please 


INTRO (timing is fairly simple, just listen)
G|--------------------------------------------|
D|--------------------------------------------|
A|--------------5~~~~3~~~~----------5~~~~3~~~~|
E|----5~~~~3~~~~----------5~~~~3~~~~----------|

VERSE 1
G|----------------------------------------------------------------|
D|----------------------------------------------------------------|
A|---------------------------------5-5-5-5-5-5-5-5-3-3-3-3-3-3-3-3|
E|-3-3-3-3-3-3-3-3-5-5-5-5-5-5-5-5--------------------------------|

G|----------------------------------------------------------|
D|----------------------------------------------------------|
A|---------------------------------5-5-5-5-5-5-5-5-3-3-3~~~~|
E|-3-3-3-3-3-3-3-3-5-5-5-5-5-5-5-5--------------------------|

CHORUS
G|-----------------------------------------------------------------|
D|-----------------------------------------------------------------|
A|-7-7-7-7-7-7-7-7-5-5-5-5-5-5-5-5---------------------------------|
E|---------------------------------7-7-7-7-7-7-7-7-8-8-8-8-8-8-8-8-|

G|-----------------------------------------------------------------------------|
D|-----------------------------------------------------------------------------|
A|-7-7-7-7-7-7-7-7-5-5-5-5-5-5-5-5---------------------------------------------|
E|---------------------------------7-7-7-7-7-7-7-7-8-8-8-8-8-8-8-8--8~~~~~~/12\|

VERSE 2
G|----------------------------------------------------------------|
D|----------------------------------------------------------------|
A|---------------------------------5-5-5-5-5-5-5-5-3-3-3-3-3-3-3-3|
E|-3-3-3-3-3-3-3-3-5-5-5-5-5-5-5-5--------------------------------|

G|----------------------------------------------------------------|
D|----------------------------------------------------------------|
A|---------------------------------5-5-5-5-5-5-5-5-3-3-3-3-3-3-3-3|
E|-3-3-3-3-3-3-3-3-5-5-5-5-5-5-5-5--------------------------------|

G|----------------------------------------------------------------|
D|----------------------------------------------------------------|
A|---------------------------------5-5-5-5-5-5-5-5-3-3-3-3-3-3-3-3|
E|-3-3-3-3-3-3-3-3-5-5-5-5-5-5-5-5--------------------------------|

G|----------------------------------------------------------|
D|----------------------------------------------------------|
A|---------------------------------5-5-5-5-5-5-5-5-3-3-3~~~~|
E|-3-3-3-3-3-3-3-3-5-5-5-5-5-5-5-5--------------------------|

CHORUS
G|-----------------------------------------------------------------|
D|-----------------------------------------------------------------|
A|-7-7-7-7-7-7-7-7-5-5-5-5-5-5-5-5---------------------------------|
E|---------------------------------7-7-7-7-7-7-7-7-8-8-8-8-8-8-8-8-|

G|-----------------------------------------------------------------|
D|-----------------------------------------------------------------|
A|-7-7-7-7-7-7-7-7-5-5-5-5-5-5-5-5---------------------------------|
E|---------------------------------7-7-7-7-7-7-7-7-8-8-8-8-8-8-8-8-|

BRIDGE
G|-----------------------------------------------------------------|
D|-----------------------------------------------------------------|
A|-7~~7--xx-xx-7-x-5~~5--xx-xx-7-x---------------------------------|
E|---------------------------------7~~7--xx-xx-7-x-8~~8--xx-xx-8-x-|

G|--------------------------------------------------------|
D|--------------------------------------------------------|
A|-7~~7--xx-xx-7-x-5~~5--xx-xx-7-x------------------------|
E|---------------------------------7~~7--xx-xx-7-x-8----8-|

FINAL CHORUS
G|-----------------------------------------------------------------|
D|-----------------------------------------------------------------|
A|-7-7-7-7-7-7-7-7-5-5-5-5-5-5-5-5---------------------------------|
E|---------------------------------7-7-7-7-7-7-7-7-8-8-8-8-8-8-8-8-|

G|-----------------------------------------------------------------|
D|-----------------------------------------------------------------|
A|-7-7-7-7-7-7-7-7-5-5-5-5-5-5-5-5---------------------------------|
E|---------------------------------7-7-7-7-7-7-7-7-8-8-8-8-8-8-8-8-|

G|-----------------------------------------------------------------|
D|-----------------------------------------------------------------|
A|-7-7-7-7-7-7-7-7-5-5-5-5-5-5-5-5---------------------------------|
E|---------------------------------7-7-7-7-7-7-7-7-8-8-8-8-8-8-8-8-|

G|-----------------------------------------------------------------|
D|-----------------------------------------------------------------|
A|-7-7-7-7-7-7-7-7-5-5-5-5-5-5-5-5---------------------------------|
E|---------------------------------7-7-7-7-7-7-7-7-8-8-8-8-8-8-8-8-|

G|-----------------------------------------------------------------|
D|-----------------------------------------------------------------|
A|-7-7-7-7-7-7-7-7-5-5-5-5-5-5-5-5---------------------------------|
E|---------------------------------7-7-7-7-7-7-7-7-8-8-8-8-8-8-8-8-|

G|--------------------------------------------------------------------------|
D|--------------------------------------------------------------------------|
A|-7-7-7-7-7-7-7-7-5-5-5-5-5-5-5-5------------------------------------------|
E|---------------------------------7-7-7-7-7-7-7-7-8-8-8-8-8-8-8-8-8~~~~~~~~|


| /  slide up
| \  slide down
| h  hammer-on
| p  pull-off
| ~  vibrato
| +  harmonic
| x  Mute note
==============================================================================
            
Submit corrections

comments powered by Disqus
↑ Back to top | Pink Bass for Fuckin. Lyrics for acoustic guitar and electric guitar. Tablatures and chords are parodies/interpretations of the original songs. You may use it for private study, scholarship, research or language learning purposes only