» » »

Pink, Ave Mary A Tabs (ver.1)

Artists:  A B C D E F G H I J K L M N O P Q R S T U V W X Y Z # 

Ave Mary A Tabs (ver.1)

Pink Tabs
 Rating:
4.5/5 (8 votes)
Ave Mary A lessons Tabs too difficult? Try these video lessons and learn fast
                P!nk
Funhouse 2009

This is my first tab so be kind please.
I think this is pretty OK but of course people are going to be able to out do me lol.
This is just for the mean time until someone puts up a 5 star kick ass tab.
This is all rhythm guitar.
Happy playing!

INTRO

E||-------------------------------------------------------------------|
B||-------------------------------------------------------------------|
G||-----7~-------10~-----3~-------------------------------------------| X2
D||---7--------10-------3---------------------------------------------|
A||-5-------8---------1-----------------------------------------------|
D||-------------------------------------------------------------------|

INTRO pt 2


E||------------------------77-------------------------------|
B||------------------------77-------------------------------|
G||---7--7----10-10---3-3--77-------------------------------|  X 2
D||---7--7----10-10---3-3--77-------------------------------|
A||---5--5----8---8---1-1--77-------------------------------|
D||------------------------77-------------------------------|

VERSE

E||------------------------77-------------------------------------|
B||------------------------77-------------------------------------|
G||---7--7----10-10---3-3--77-------------------------------------|  X 4
D||---7--7----10-10---3-3--77-------------------------------------|
A||---5--5----8---8---1-1--77-------------------------------------|
D||------------------------77-------------------------------------|
xxxxxxxxxxxxxxxxxxxxxxxxxxxxxxxxxxxxxxxxxxxxxx (P.M)

OR (whatever floats your boat...I prefer the latter) 

E||-----------------------------------------------------------------|
B||-----------------------------------------------------------------|
G||-----------------------------------------------------------------|
D||---------7---------10---------3----------------------------------|X 4
A||----5---------8-----------1---------0-0--------------------------|
D||-----------------------------------------------------------------|
xxxxxxxxxxxxxxxxxxxxxxxxxxxxxxxxxxxxxxxxxxxxxxx (P.M)

PRE CHORUS (Very faint but its there)

And when I think about it...

E||-------------------------------------------------------------------|
B||-------------------------------------------------------------------|
G||-----7~-------10~---------3----------------------------------------|X2
D||---7--------10----------3------------------------------------------|
A||-5-------8-----------1---------------------------------------------|
D||-------------------------------------------------------------------|

PRE CHORUS

Ave Mary A...

E||--------------------------------------------------------------|
B||--------------------------------------------------------------|
G||---77777777---99999999---1010101010101010---33333333----------|
D||---77777777---99999999---1010101010101010---33333333----------|
A||---55555555---77777777---8-8-8-8--8-8-8-8---11111111----------|
D||--------------------------------------------------------------|

CHORUS

E||--------------------------------------------------------------|
B||--------------------------------------------------------------|
G||---77777777---99999999---1010101010101010---33333333----------|
D||---77777777---99999999---1010101010101010---33333333----------|
A||---55555555---77777777---8-8-8-8-8-8-8-8----11111111----------|
D||--------------------------------------------------------------|

E||--------------------------------------------------------------|
B||--------------------------------------------------------------|
G||---77777777---55555555---1010101010101010---33333333----------|
D||---77777777---55555555---1010101010101010---33333333----------|
A||---55555555---33333333---8-8-8-8-8-8-8-8----11111111----------|
D||--------------------------------------------------------------|

E||--------------------------------------------------------------|
B||--------------------------------------------------------------|
G||---77777777---99999999---1010101010101010---33333333----------|
D||---77777777---99999999---1010101010101010---33333333----------|
A||---55555555---77777777---8-8-8-8-8-8-8-8----11111111----------|
D||--------------------------------------------------------------|

POST CHORUS

E||-----------------------77-------------------------------|
B||-----------------------77-------------------------------|
G||---7--7---10-10---3-3--77-------------------------------|  X 2
D||---7--7---10-10---3-3--77-------------------------------|
A||---5--5----8--8---1-1--77-------------------------------|
D||-----------------------77-------------------------------|

VERSE 2 (Silent to begin with)

But for that they have got to pay...

E||-------------------------------------------------------------------|
B||-------------------------------------------------------------------|
G||-----7~-------10~---------3----------------------------------------|X2
D||---7--------10----------3------------------------------------------|
A||-5-------8-----------1---------------------------------------------|
D||-------------------------------------------------------------------|

PRE CHORUS

CHORUS

BRIDGE

At Drum beat (2:16)

(This is silent (I think) but you can play this here as a filler, just nice and slow, 
figure the beat)

E||--------------------------------------------------------------|
B||--------------------------------------------------------------|
G||--------------------------------------------------------------| X2
D||---7~~~~~--------10~~~~~----------3~~~~~~~--------------------|
A||-5~~~~~-------8~~~~~~-----------1~~~~~~-----------------------|
D||--------------------------------------------------------------|

End on

A||---0~|

LAST PRE-CHORUS

E||--------------------------------------------------------------|
B||--------------------------------------------------------------|
G||---77777777---99999999---1010101010101010---33333333----------|
D||---77777777---99999999---1010101010101010---33333333----------|
A||---55555555---77777777---8-8-8-8-8-8-8-8----11111111----------|
D||--------------------------------------------------------------|
xxxxxxxxxxxxxxxxxxxxxxxxxxxxxxxxxxxxxxxxxxxxxxxxxxxxxxxx (P.M)

CHORUS

POST CHORUS

E||------------------------------77-------------------------------|
B||------------------------------77-------------------------------|
G||---7--7----10-10---3-3--------77-------------------------------|  X 2
D||---7--7----10-10---3-3--------77-------------------------------|
A||---5--5----8---8---1-1--------77-------------------------------|
D||------------------------------77-------------------------------|

END ON

E||---7-|
B||---7-|
G||---7-|
D||---7-|
A||---7-|
D||---7-|
            
Submit corrections

comments powered by Disqus
↑ Back to top | Pink Tabs for Ave Mary A. Lyrics for acoustic guitar and electric guitar. Tablatures and chords are parodies/interpretations of the original songs. You may use it for private study, scholarship, research or language learning purposes only