>
 >
Patricia

Patricia Guitar Tabs

Pillows - Patricia chords, tabs, tablatures, lyrics

Guitar lessons | Add/correct | Request | Top 50 tabs Artists:  A B C D E F G H I J K L M N O P Q R S T U V W X Y Z 0-9

Patricia Guitar Tabs – Pillows

CD, Sheet music, Poster

Do you like Patricia? Share with your friends now
TabsTabs v2
Chords:

F#m    D  Db   E   A   Bm  B
e|-2-|-5-|-4-|-7-|-5-|-2-|-2-|
b|-2-|-7-|-6-|-9-|-5-|-3-|-4-|
g|-2-|-7-|-6-|-9-|-6-|-4-|-4-|
d|-4-|-7-|-6-|-9-|-7-|-4-|-4-|
a|-4-|-5-|-4-|-7-|-7-|-2-|-2-|
E|-2-|-5-|-4-|-7-|-5-|-2-|-2-|
d
intro Riff- 
  D    Db    F#m         B     D        E     A  
e|---------------------------------------------------------------|
b|---------9-9h10-9----------------------------------------------|
g|-9-7-5h6----------11-9-7h8-----------------------4-6-9-6-------|
d|---------------------------9-6-7-7--6-7-9--11--7---------7-----|
a|---------------------------------------------------------------|
E|---------------------------------------------------------------|

  D    Db    F#m         B     D             E
e|---------------------------------------------------------------|
b|---------9-9h10-9----------------------------------------------|
g|-9-7-5h6----------11-9-7h8----------6---6-9-6-9-6-9-5-9-4-9----|
d|---------------------------9----7-----9------------------------|
a|------------------------------9---9----------------------------|
E|---------------------------------------------------------------|

Verse- Keep in mind this is played very lightly, and hard to make out

   A                 F#m                 D
e|-----------------||-----------------||-5---------------|
b|-------------5---||-----------------||-7---------------|
g|----6----6-----6-||----6--------6---||-7---------------|
d|-----------7-----||---------7-----7-||-7---------------|
a|-----------------||-----------------||-5---------------|
E|-5-----5---------||-5-----5---5-----||-5---------------|
   Db                Bm  
e|-4---------------||-----------------|
b|-6---------------||-----------------|
g|-6---------------||----6------6-----|
d|-6---------------||-------7------7--|
a|-4---------------||-9-------9-------|
E|-4---------------||-----------------|
   A                 F#m                 D
e|-----------------||-----------------||-5---------------|
b|-------------5---||-----------------||-7---------------|
g|----6----6-----6-||----6--------6---||-7---------------|
d|-----------7-----||---------7-----7-||-7---------------|
a|-----------------||-----------------||-5---------------|
E|-5-----5---------||-5-----5---5-----||-5---------------|
   E                  A
e|-7---------------||--------------------|
b|-9---------------||--------------------|
g|-9---------------||-----------8h9-9-7-6|
d|-9---------------||-11-12-11-----------|
a|-7---------------||--------------------|
E|-7---------------||--------------------|

Chorus- more light picking. Rhythm guitar carries this song.
   D                  A 
e|-----------------||--------------------|
b|-----------------||--------------------|
g|---7---11--------||-------6------------|
d|-7---7----12-----||---7-----7----------|
a|-----------------||-7---7--------------|
E|-----------------||--------------------|
   D                  A 
e|-----------------||--------------------|
b|-----------------||--------------------|
g|---7---11--------||-------6------------|
d|-7---7----12-----||---7-----7----------|
a|-----------------||-7---7--------------|
E|-----------------||--------------------|
   D                  F#m 
e|-----------------||--------------------|
b|-----------------||--------------------|
g|---7---11--------||-------6------------|
d|-7---7----12-----||---7-----7----------|
a|-----------------||-9---9--------------|
E|-----------------||--------------------|
   E                  A 
e|-----------------||----------------------|
b|-------5---------||--------5p3--------5p3|
g|---4-----4-------||----7----------7------|
d|-6---6-----------||------7----------7----|
a|-----------------||----------------------|
E|-----------------||-10---------10--------|

Part before solo-
   A
e|-------------------|
b|-------------------|
g|-------------------|
d|-----7h9-7-11p9-7--|
a|-7h9---------------|
E|-------------------|
   D  Dm F#m  A        Bm    E       A
e|-55-44-2222-5-5--||-------------------------|
b|-77-66-2222-7-7--||-------------------------|
g|-77-66-2222-7-7--||-----9------9-9-------9-9|
d|-77-66-4444-7-7--||---7------9---------7----|
a|-55-44-4444-5-5--||-9-----11------7h11------|
E|-55-44-2222-5-5--||-------------------------|
   D  Dm F#m  A        D            E
e|-55-44-2222-5-5--||-----------------------------|
b|-77-66-2222-7-7--||-----------------------------|
g|-77-66-2222-7-7--||-7-------7--7---------------9|
d|-77-66-4444-7-7--||---7---7--7--7--9--9-9-11-11-|
a|-55-44-4444-5-5--||-----9-----9--9--------------|
E|-55-44-2222-5-5--||-----------------------------|

Solo- (Using Wah effect).
   A                                      F#m
e|--------------------------------------------------------------|
b|-------------------------10-9h10h9--------10-9h10-9-7-9-10----|
g|-----------------------------------6-9------------------------|
d|---------7-7h9-7-9/11-----------------------------------------|
a|-7-7-7h9------------------------------------------------------|
E|--------------------------------------------------------------|
              D      Db        Bm
e|---------------------------------9-9--------------------------|
b|-10h14-9h14-------/10-9-7----7-7-----10-10-10h15-10h14--------|
g|------------11-------------9----------------------------------|
d|--------------------------------------------------------------|
a|--------------------------------------------------------------|
E|--------------------------------------------------------------|
   A                         F#m                       D
e|--------------------------------------7-9-9-7-----------------|
b|---------------------------------9-10---------10-9------------|
g|-------------------------9-11-11-------------------9-11-------|
d|-7-7-7\6-9h11-11-11p9h11--------------------------------------|
a|--------------------------------------------------------------|
E|--------------------------------------------------------------|
   E            A
e|--------------------------------------------------------------|
b|--------------------------------------------------------------|
g|-9-9p7--------6--7--9--12-------------------------------------|
d|-------11p9-7-------------------------------------------------|
a|--------------------------------------------------------------|
E|--------------------------------------------------------------|

Into chorus.

Please Email me, I'm if I made any mistakes.





Comments


Popular Pillows tabs & chords
Happy Bivouac Bass Tabs
I Think I Can Bass Tabs
Runners High Bass Tabs
Beautiful Morning With You 1 Tabs
Black Sheep Tabs
Happy Bivouac Tabs
Lets See If Thats True Or Not Tabs
Revers Edge Tabs
White Ash Tabs
Tokyo Bambi Ukulele


Song lyrics



↑ Back to top | Tablatures and chords are parodies/interpretations of the original songs. You may use it for private study, scholarship, research or language learning purposes only
© 2014 AZChords.com Contact us | Privacy policy | DMCA | Add/correct tabs | Request tabs | Top 50 tabs