» » »

Pillows, White Summer And Green Bicycle Red Hair With Black Tabs (ver.1)

Artists:  A B C D E F G H I J K L M N O P Q R S T U V W X Y Z # 

White Summer And Green Bicycle Red Hair With Black Tabs (ver.1)

Pillows Tabs
Rating:
0/5 (0 votes)
White Summer And Green Bicycle Red Hair With Black lessons Tabs too difficult? Try these video lessons and learn fast
                (Guitar)
irc.aniverse.com

h=hammeron
p=pulloff
//=slide

sigh... i think some of this tab sounds iffy (i had to use an out-of-tune
guitar),so please feel free to criticize and annoy me about where i'm
wrong ^^...
happy playing or guitaring or whatever that word is =D

intro (i suggest a partial bar on the 4th fret with very very very slight
distortion)
---------------------------|-----------------------------|-----------------------------|
---------------------------|-----------------------------|-----------------------------|
--- 4---4---- 4h6-6 4-4-4--|----- 4-- 4------------------|------4---4-----4h6 6 4 4 4--|
4h6---6---6-6--------------|--4h6-- 6-- 6---2---4h6-4-2--|--4h6---6---6 6--------------|
0-------------0-----0---0--|--0-------------  2 ---------|--0-------------0-----0---0--|
---------------------------|--------------0-------0---0--|-----------------------------|


---------------------------|-----------------------------|--------------------0-0------|
---------------------------|----------------------5------|------------------0---0------|
----4---4------------------|----------------------4------|----------------------1------|
4h6---6---6---2---2h4 2---2|-----------------------------|------- 0h2-0---------2------|
0---------------2-------2--|----6-----4-------2-----2----|----0h2-------2-------2------|
------------0--------------|--7---7-5---5-4 4---4--------|--0-------------0-----0------|

guitar one (right after intro, goes on throughout verse... the rhythm changes
at about 1:06 into the song)
           (the tab for this part is wrong - it sounds too high, and when i
watched a live video of the pillows                  playing this song,
sawao's hand didn't move up and down the neck at all...)
2x                    2x
----------------|----------------|
----------------|----------------|
4-4-4-4-4-4-4---|4-4-------------|
6-6-4-4-4-4-4---|4-4-2-2-2-2-2---|
0-0-0-0-0-0-0---|0-0-2-2-2-2-2---|
----------------|----0-0-0-0-0---|

guitar two (right after intro, goes on throughout verse... the rhythm changes at
about 1:06 into the song...
            again, i suggest a partial bar on the fourth fret)
--------4---7---7p4--------|
4h5-7-5---5---5------------|
---------------------------| repeat and repeat and repeat and repeat with
slight variations every now and then
---------------------------|
---------------------------|
---------------------------|

solo (3:44) (there are probably too many or too few of some notes... i cant count XP)
77777777777 5 4 55555//11-5 5h77----7777-----------------------------------------------|
--------------------------------5------- 5 --------------------------------------------|
-------------------------------------------7 77 6 7//9//11 9 7 676 76 76---------------|


08/30/03
            
Submit corrections

comments powered by Disqus
↑ Back to top | Pillows Tabs for White Summer And Green Bicycle Red Hair With Black. Lyrics for acoustic guitar and electric guitar. Tablatures and chords are parodies/interpretations of the original songs. You may use it for private study, scholarship, research or language learning purposes only