» » »

Pillar, Fireproof Tabs (ver.1)

Artists:  A B C D E F G H I J K L M N O P Q R S T U V W X Y Z # 

Fireproof Tabs (ver.1)

Pillar Tabs
 Rating:
3.4/5 (11 votes)
Fireproof lessons Tabs too difficult? Try these video lessons and learn fast
1
                 ...it's all in order so just read down the page as you play...

 (Heavy Distortion)

 Intro: (with delay)
e|----------------------------------------|
B|----------------------------------------|
G|----------------------------------------|
D|----------------------------------------| X2
A|--5---5---5---5----5---5---5---5---8-7--|
D|--0---2---3---5----0---2---3---5---8-7--|
  pm......................................

 Verse:
e|--------------------------------------|
B|--------------------------------------|
G|--------------------------------------|
D|--------------------------------------|
A|-----5--------5--------5--------5-----|
D|-00-0--0--22-2--2--33-3--3--55-5--5---|
   pm..     ....     ....     ....
  --------------------------------------|
  --------------------------------------|
  --------------------------------------|
  --------------------------------------| X2
  -----5--------5--------5------5---7---|
  -00-0--0--22-2--2--33-3--3-55--5-5-5--|
   pm..     ....     ....    ..  .   .
 Pre-chorus:
e|----------------------------------------|
B|----------------------------------------|
G|----------------------------------------|
D|----------------------------------------|
A|-00-0-00--22-2-22--33-3-33--55-5-55-----|
D|-00-0-00--22-2-22--33-3-33--55-5-55-----|
        **       **       **       **
  ----------------------------------------|
  ----------------------------------------|
  ----------------------------------------|
  ----------------------------------------|
  -00-0-00--22-2-22--33-3-33--5555-<-<-<--|
  -00-0-00--22-2-22--33-3-33--5555-<-<-<--|
        **       **       *
 Chorus:
e|----------------------------------------|
B|----------------------------------------|
G|----------------------------------------|
D|-00---------0--------0-8888xx8-555xxx5--| x3
A|-00-5\6/5\6-05\6/5\6-0-8888xx8-555xxx5--|
D|-00---------0--------0-8888xx8-555xxx5--|

  ----------------------------------------|
  ----------------------------------------|
  ----------------------------------------|
  -00---------0--------0-----8---------5--|
  -00-5\6/5\6-05\6/5\6-0-8888--8--5555--5-|
  -00---------0--------0-8888-----5555----|
                         pm..     ....
 Intro
 Verse
 Pre-chorus
 Chorus

 Interlude:
e|-------------------------------------------|
B|-------------------------------------------|
G|-------------------------------------------|
D|-----------5-7-5-7--57-577-5-7-5-7--57-577-|
A|-5---------5-5-5-5-5---555-5-5-5-5-5---555-|
D|-0-----------------------------------------|
             pm.............................

                               |   First End   ||Second End|
  -----------------------------|---------------||----------|
  -----------------------------|---------------||----------|
  -----------------------------|---------------||----------|
  -3-5-3-5--35-355-10-12-10-12-|---1012-101212-||--10\12/--| x2
  -3-3-3-3-3---333-10-10-10-10-|-10-----101010-||----------|
  -----------------------------|---------------||----------|
   pm.........................................

 Bridge:
e|------------------------------------|
B|------------------------------------|
G|------------------------------------|
D|-5-7-5-7-555-7b--5-7-5-7-555-7b-----|
A|-5-5-5-5---------5-5-5-5------------|
D|------------------------------------|

  ------------------------------------|
  ------------------------------------|
  ------------------------------------|
  -5-7-5-7-555-7b--10-12-10-12-10-12--| x4
  -5-5-5-5---------10-10-10-10-10-10--|
  ------------------------------------|

  Second pre-chorus:
e|-----------------------------------|
B|-----------------------------------|
G|-----------------------------------|
D|-----------------------8-8-88-555--|
A|-5-5h7p5h7p5-5h7p5h7p5-8-8-88-555--|
D|-----------------------8-8-88-555--|
                             ** ***
 Chorus (goes longer but just listen
             and you'll get it)
 Outro:
e|--------------------------|
B|--------------------------|
G|--------------------------|
D|-5-7-5-7-5-7-5-7-xxxx5-7--|
A|-5-7-5-7-5-7-5-7-xxxx5-7--|
D|-5-7-5-7-5-7-5-7-xxxx5-7--|
     *   *   *   *       *

 Key:    pm.. | Palm Mute
         *    | Mute string/strings after pick/strum
         x    | Muffle
         \    | Slide up
         /    | Slide down
         b    | Bend note
         h    | Hammer on
         p    | Pull off
            
Submit corrections

comments powered by Disqus
↑ Back to top | Pillar Tabs for Fireproof. Lyrics for acoustic guitar and electric guitar. 1 Tablatures and chords are parodies/interpretations of the original songs. You may use it for private study, scholarship, research or language learning purposes only