» » »

Pignoise, Te Entiendo Tabs (ver.1)

Artists:  A B C D E F G H I J K L M N O P Q R S T U V W X Y Z # 

Te Entiendo Tabs (ver.1)

Pignoise Tabs
Rating:
5/5 (1 vote)
Te Entiendo lessons Tabs too difficult? Try these video lessons and learn fast
                INTRO

E||----------||
B||----------||
G||-6--------||
D||---7-9-7--|| x 4
A||----------||
E||----------||

      A5        F#5          D5         E5

E||---------||----------||---------||---------||
B||-6-------||----------||-4-------||---------||
G||---7-9-7-||----------||---5-7-5-||---------||
D||---------||-7--------||---------||-7-6-9-6-||
A||---------||---9-11-9-||---------||---------||
E||---------||----------||---------||---------||

VERSO 1
A5                                      
No quiero perder la razon                
                 F#5
Mirando a cada instante ami alrededor    
                 D5
Sabiendo que no llamaras ni te cruzaras  
           E5
Que no miraras que no vas a estar       

Lo sigientes versos los acordes estan muteados
y en el D5 y el E5 hacen un pequeño riff

E||-------------------------------------||
B||-------------------------------------||
G||----7----7----7----7-----9----9----9-||
D||-77-7-77-7-77-7-77-7--99-9-99-9-99-9-||
A||-55-5-55-5-55-5-55-5--77-7-77-7-77-7-||
E||-------------------------------------||
Pm  ..   ..   ..   ..    ..   ..   ..

A5
Pero esque es tan facil pensar
                F#5
Que cierta tarde tonta nos podemos cruzar
                 D5
Que tal estas te veo bien se peude cortar
            E5
Estar tarde gris yo me voi a ir

CORO

A5
Y Quiero olvidar todo y empesar de cero y tengo
F#
Una cancion y muy poco dinero espero
D5
Tener la oportunidad para poder demostrar
E5
Que nadie mas te cuida y solo yo te te entiendo

PRE-VERSO

E||----------||
B||----------||
G||-6--------||
D||---7-9-7--|| x 4
A||----------||
E||----------||

VERSO 2

A5
Puede que no te vuelva a ver en tres o cuatro
F#
Años con la vida alreves quizas entonces
D5
Puedes ver otra tarde gris
E5
Apunto de llover se que entonces si

CORO

A5
Y Quiero olvidar todo y empesar de cero y tengo
F#
Una cancion y muy poco dinero espero
D5
Tener la oportunidad para poder demostrar
E5
Que nadie mas te cuida y solo yo te entiendo

INTERLUDIO

      A5               F#5

E||--------------||-------------||
B||--------------||-------------||
G||--------------||-------------||
D||-77----77-99--||-77----77-99-||
A||----77--------||----77-------||
E||--------------||-------------||
Pm  .. .. .. ..     .. .. .. ..

      D5                M5

E||--------------||-------------||
B||--------------||-------------||
G||--------------||-------------||
D||-77----77-99--||-77----77-99-||
A||----77--------||----77-------||
E||--------------||-------------||
Pm  .. .. .. ..     .. .. .. ..


SOLO

E||-------------------------||
B||-------------------------||
G||-------------------------||
D||-7-9-7-9-7- X2-12-11-9-7-|| x3
A||-------------------------||
E||-------------------------||

E||-----------||
B||-----------||
G||-----------||
D||-7-9-7-6-7-|| x2
A||-----------||
E||-----------||

ESTRIBILLO

A5                                              
Y Quiero olvidar todo y empesar de cero y tengo 
F#                                              
Una cancion y muy poco dinero espero            
D5                                              
Tener la oportunidad para poder demostrar       
E5                                              
Que nadie mas te cuida y solo yo te entiendo    
            
Submit corrections

comments powered by Disqus
↑ Back to top | Pignoise Tabs for Te Entiendo. Lyrics for acoustic guitar and electric guitar. Tablatures and chords are parodies/interpretations of the original songs. You may use it for private study, scholarship, research or language learning purposes only