» » »

Pignoise, Solo Quiero Amor Tabs (ver.1)

Artists:  A B C D E F G H I J K L M N O P Q R S T U V W X Y Z # 

Solo Quiero Amor Tabs (ver.1)

Pignoise Tabs
 Rating:
4/5 (4 votes)
Solo Quiero Amor lessons Tabs too difficult? Try these video lessons and learn fast
                                                                         E5-E5
E||---------------------------------------------------------------|
B||---------------------------------------------------------------|
G||---------------------------------------------------------------|
D||--------7*7*7*------7*7*7*----7*------7*7*7*------7*7*7*----7*-|
A||--7*7*7*------7*7*7*------7*7*---7*7*7*-----7*7*7*------7*7*---|
E||---------------------------------------------------------------|


A5                   C5
------------------------------------------|
------------------------------------------|
------------------------------------------|
-7--9-7--9-7--9-11-9--6--7-6--7-6--7-9-7--|
------------------------------------------|
------------------------------------------|
F5                 D5        E5                          x2
----------------------------------------||
----------------------------------------||
----------------------------------------||
7--9-7--9-7--9-11-9--7--9-7--9-7--9-11-9||
----------------------------------------||
----------------------------------------||


A5                       C5
Parezco interesante pero solo soy un memo
F5
parezco echao pa lante
D5              E5
y solo tengo miedo
A5
parezco impresentable
        C5
y esque siempre suelo serlo
F5                     D5              E5
si solo soy un vago que siempre tiene sueño

      A5
Solo quiero amor..
      C5
Solo quiero amor..
      F5
Solo quiero amor..
      D5     E5   A5  E5-E5 A5
Solo quiero amor..


A5                  C5
Parezco alguien brillante
 F5
pero soy un poco ingenuo
D5               E5
solo al equivocarme
es cuando tengo acierto
A5
parezco algo importante
     C
pero yo soy muy pequeño
F5                       D5          E5
y esque soy un desastre y no tengo remedio


      A5
Solo quiero amor..
      C5
Solo quiero amor..
      F5
Solo quiero amor..
       D5     E5
Solo quiero amor..

      A5
Solo quiero amor..
      C5
Solo quiero amor..
      F5
Solo quiero amor..
       D5     E5
Solo quiero amor..


SOLO:
    D5                A5                  F5         E5          D5
E||-------------------------------------------------------------------|
B||-------------------------------------------------------------------|
G||--6-7-6-7-6------------6-7-6-7-6-----------6-7-6-7-6---6-7-6-7-6---|
D||------------7--9-7---------------7--9-7--------------7-----------7-|
A||-------------------7-7------------------9-9------------------------|
E||-------------------------------------------------------------------|

          E5
------------------||
------------------||
--6-7-6-7-6-------||
------------7-----||
------------------||
------------------||

      A5
Solo quiero amor..
      C5
Solo quiero amor..
      F5                           palm mute
Solo quiero amor..
       D5     E5
Solo quiero amor..


      A5
Solo quiero amor..
      DO#
Solo quiero amor..
      F5
Solo quiero amor..
       D5     E5
Solo quiero amor..

      A5
Solo quiero amor..
      C5
Solo quiero amor..
      F5
Solo quiero amor..
       D5     E5
Solo quiero amor..

A5                   C5
------------------------------------------|
------------------------------------------|
------------------------------------------|
-7--9-7--9-7--9-11-9--6--7-6--7-6--7-9-7--|
------------------------------------------|
------------------------------------------|
F5                 D5        E5                          x2
----------------------------------------||
----------------------------------------||
----------------------------------------||
7--9-7--9-7--9-11-9--7--9-7--9-7--9-11-9||
----------------------------------------||
----------------------------------------||

                                 A5
E||---------------------------------|
B||---------------------------------|
G||---------------------------------|
D||--------7*7*7*------7*7*7*----7*-|
A||--7*7*7*------7*7*7*------7*7*---|
E||---------------------------------|


* = armónicos.


---------------------------------
ACORDES:

   C5
E||-x-||
B||-x-||
G||-6-||
D||-6-||
A||-4-||
E||-x-||

   D5
E||-x-||
B||-x-||
G||-7-||
D||-7-||
A||-5-||
E||-x-||

   A5
E||-x-||
B||-x-||
G||-x-||
D||-7-||
A||-7-||
E||-5-||

  F5
E||-x-||
B||-x-||
G||-x-||
D||-3-||
A||-3-||
E||-1-||
Disculpen no se si esta bien el mi!!! pero chequelen que si sale bien chevere gracias!!!
            
Submit corrections

comments powered by Disqus
↑ Back to top | Pignoise Tabs for Solo Quiero Amor. Lyrics for acoustic guitar and electric guitar. Tablatures and chords are parodies/interpretations of the original songs. You may use it for private study, scholarship, research or language learning purposes only