» » »

Pignoise, Sigo Llorando Por Ti Tabs (ver.1)

Artists:  A B C D E F G H I J K L M N O P Q R S T U V W X Y Z # 

Sigo Llorando Por Ti Tabs (ver.1)

Pignoise Tabs
Rating:
5/5 (1 vote)
Sigo Llorando Por Ti lessons Tabs too difficult? Try these video lessons and learn fast
                INTRO
------------------------------------------|
--3-3-3-1-------------3-3-3-1-------------|
----------3-2-0-0-0-0---------3-2---------|
----------------------------------1-1-1-1-|
------------------------------------------|
------------------------------------------|

--------------------------------------------------/
-3-3-3-1-------------3-3-3-1----------------------/
---------3-2-----------------3-2------------0-2-0-/
-------------3-3-3-3-------------4-4-4-4----------/
--------------------------------------------------/
--------------------------------------------------/

-3-3-3-1-------------3-3-3-1-------------3-3-3-1-----|
---------3-2-----------------3-2-----------------3-2-|
-------------1-1-1-1-------------3-3-3-3-------------|
-----------------------------------------------------|
-----------------------------------------------------|
-----------------------------------------------------|

---------------/
---------------/
-4-4-4-4-0-2-0-/
---------------/
---------------/
---------------/


((RIFF))
|----------------------------------------------------------------|
|----------------------------------------------------------------|
|------7-------5-------------------------------------------------|
|------------------------8---------------------------------------|
|----------------------------------------------------------------|


G5                          D#5      D5   (RIFF)
   Yo que en el infierno me suelo quedar
G5                            D#5        D5  (RIFF)
   Me estoy derritiendo y me empiezo a quemar.

        D#5                   F5
Con las uñas de los dedos arrancadas por los nervios,
      G5                       A#5
Solo queda el recuerdo y me siento vacio sin ti.

CHORUS:

D#5                       A#5
    Sigo llorandote, sigo esperandote,
F5                        G5
    Sigo pensando que no tengo remedio sin ti.
D#5                       A#5
    Sigo llorandote, sigo esperandote,
C5                        D5
    Sigo llorando por ti, sigo llorando por ti.

G5                       D#5      D5  (RIFF)
   Cumpliendo condena en esta soledad
G5                     D#5      D5  (RIFF)
   Como una sirena que no tiene mar


          D#5                         F5
Con los trozos de un espejo esparcidos por el suelo
      G5                     A#5
Solo queda el reflejo porque sigo vacio sin ti


CHORUS


D#5            A#5                F5 G5 F5
   Y aunque estoy solo ya no siento miedo.
D#5            A#5                F5 G5 F5
   Si me despierto me vuelvo a dormir.
D#5            A#5                F5 G5 F5
   Muerto de frio me quemo por dentro.
C5                    D5                   D#5
   Sigo llorando por ti, sigo llorando por ti.


SOLO
|--------------------------------------------------------------------|
|--------------------------------------------------------------------|
|---10-8-7-8-7----10-8-7-8--10-7---10-8-7-8-7---7-10-8-7--7-10-8-7---|
|-8-------------8----------------8--------------------------------10-|
|--------------------------------------------------------------------|
|--------------------------------------------------------------------|

|--------------------------------------------------------------------|
|-------------------------------------------------8(X6)--10(X6)------|
|---10--8-7-8-7-----10--8-7-8--10-7----10-8-7-8-7--------------------|
|-8--------------8-------------------8-------------------------------|
|--------------------------------------------------------------------|
|--------------------------------------------------------------------|

        D#5                   F5
Con las uñas de los dedos arrancadas por los nervios,
        G5                     A#5
 Solo queda el recuerdo y me siento vacio sin ti.


CHORUS (2x)


INTRO

G5
            

comments powered by Disqus
↑ Back to top | Pignoise Tabs for Sigo Llorando Por Ti. Lyrics for acoustic guitar and electric guitar. Tablatures and chords are parodies/interpretations of the original songs. You may use it for private study, scholarship, research or language learning purposes only